Song name
# A B C D E F G H I J K L M N O P Q R S T U V W X Y Z

Alter Bridge - Fallout tab

Eb|--------------------------------------------------------|
Bb|--------------------------------------------------------|
Gb|---/7-8--7-8-7----------------/7-8--10-8-7-8*--10-7-x---|
Db|---------------8--8-(8)=b10r8---------------------------|
Ab|Don't pick this note!/----------------------------------|
Db|--------------------------------------------------------|

Eb|-------------------------------------------|
Bb|---------11-11--8-6*-----6*----------------|
Gb|--7-8-10-------------8------8--------------|
Db|-----------------------8------8--7h8p7/5---|
Ab|-------------------------------------------|
Db|-------------------------------------------|

Eb|-----------------------15b16r15---11-10---10---|
Bb|----------11--11-13-15------------------11-----|
Gb|--/7-8-10--------------------------------------|
Db|-----------------------------------------------|
Ab|-----------------------------------------------|
Db|-----------------------------------------------|

Eb|-----10-11--10-11-10-----------------------10-11-13--13-15-13-10-10-13v-|
Bb|--11----------------11v--11-(11)=b13r11--11-----------------------------|
Gb|--------Don't pick this note!/------------------------------------------|
Db|------------------------------------------------------------------------|
Ab|------------------------------------------------------------------------|
Db|------------------------------------------------------------------------|

  Fast part (With wah-wah pedal!)
Eb|-11--15p13p11--------------------------------------------------------------------------------|
Bb|-------------15p13p11-----------------------------------------------------15p13p11-----------|
Gb|---------------------15p14p12-15p14p12-14p13p12-15p14p12--------12h14h15----------15p14p12---|
Db|--------------------------------------------------------12h13h15-----------------------------|
Ab|---------------------------------------------------------------------------------------------|
Db|---------------------------------------------------------------------------------------------|

Eb|--------------------------------------|
Bb|--------------------------------------|
Gb|---13*---10-8-------------------------|
Db|--------------10-8---8----------------|
Ab|-------------------10--10-8--11-6-8---|
Db|--------------------------------------|
                  . .  .  
Tap to rate this tab
 
# A B C D E F G H I J K L M N O P Q R S T U V W X Y Z