Alter Bridge - Wonderful Life tab

Artist: Alter Bridge
Song: wonderful life
Album: AB 3
Tabbed by:  kyle macvicar

this is a great song from alter bridge's new album.  this is the live version that i 
have seen myles and mark play,  this is mostly myles's parts but iv tryed to but some of 
marks parts in,  well i hope you enjoy


Intro:

D|---------------------------------------12-10-9--------------------------|
B|--12-----------13------------10--------------------8---------7----------|
G|-----0------------0-------------0--------------------0---------0--------|
D|-------0------------0-------------0--------------------0---------0------|
G|--12-----12-12-12-----12-12--11-----11-11-11-11-11-9-----9-9-9-----9-9--|
D|------------------------------------------------------------------------|

D|------------------------------------------------------------------------|
B|--3h5-------3h5---------------------------------------------------------|
G|------0---------0-------------------------------------------------------|
D|--------0---------0-----------------------------------------------------|
G|--5-------5-5-------5---------------------------------------------------|
D|------------------------------------------------------------------------|

Verse part 1


D|---------------------------------------12-10-9--------------------------|
B|--12-----------13------------10--------------------8---------7----------|
G|-----0------------0-------------0--------------------0---------0--------|
D|-------0------------0-------------0--------------------0---------0------|
G|--12-----12-12-12-----12-12--11-----11-11-11-11-11-9-----9-9-9-----9-9--|
D|------------------------------------------------------------------------|

D|------------------------------------------------------------------------|
B|--3h5-------3h5---------------------------------------------------------|
G|------0---------0-------------------------------------------------------|
D|--------0---------0-----------------------------------------------------|
G|--5-------5-5-------5---------------------------------------------------|
D|------------------------------------------------------------------------|

D|---------------------------------------12-10-9--------------------------|
B|--12-----------13------------10--------------------8---------7----------|
G|-----0------------0-------------0--------------------0---------0--------|
D|-------0------------0-------------0--------------------0---------0------|
G|--12-----12-12-12-----12-12--11-----11-11-11-11-11-9-----9-9-9-----9-9--|
D|------------------------------------------------------------------------|

D|------------------------------------------------------------------------|
B|--------5-------5-------5-------5---------------------------------------|
G|------0-------0-------0-------0-----------------------------------------|
D|----5-------5-------5-------5-------------------------------------------|
G|--5-------5-------5-------5---------------------------------------------|
D|------------------------------------------------------------------------|

Verse part 2

D|--0--0-0-0-0-0-0--0--0-0-0-0-0-0--0-0-0-0-0-0-0-0-0-0-0-----------------|
B|--2--2-2-2-2-2-2--0--0-0-0-0-0-0--5-5-5-5/7/9-5-5-5-5/12----------------|
G|--0--0-0-0-0-0-0--0--0-0-0-0-0-0--0-0-0-0-0/0-0-0-0-0-0-----------------|
D|--2--2-2-2-2-2-2--4--4-4-4-4-4-4--5-5-5-5/7/9-5-5-5-5/12----------------|
G|--4--4-4-4-4-4-4--2--2-2-2-2-2-2--5-5-5-5/7/9-5-5-5-5/12----------------|
D|--2--2-2-2-2-2-2--0--0-0-0-0-0-0----------------------------------------|

D|--0--0-0-0-0-0-0--0--0-0-0-0-0-0--0-0-0-0-0-0-0-0-0-0-0-----------------|
B|--2--2-2-2-2-2-2--0--0-0-0-0-0-0--2-2-2-2-2-2-2-2-2-2-2-----------------|
G|--0--0-0-0-0-0-0--0--0-0-0-0-0-0--0-0-0-0-0-0-0-0-0-0-0-----------------|
D|--2--2-2-2-2-2-2--4--4-4-4-4-4-4--2-2-2-2-2-2-2-2-2-2-2-----------------|
G|--4--4-4-4-4-4-4--2--2-2-2-2-2-2--2-2-2-2-2-2-2-2-2-2-2-----------------|
D|--2--2-2-2-2-2-2--0--0-0-0-0-0-0--0-0-0-0-0-0-0-0-0-0-0-----------------|

chorus:

D--0-0-0-0-0-0-0-0--0--0-0-0----0-0-0-0--0-0-0-0-0-0-0-0--0-0-0-0-0-0-0-0-|
B--5-5-5-5-5-5-5-5--0--0-0-0----0-0-0-0--2-2-2-2-2-2-2-2--5-5-5-5-5-5-5-5-|
G--0-0-0-0-0-0-0-0--1/44-4-4----0-0-0-0--0-0-0-0-0-0-0-0--0-0-0-0-0-0-0-0-|
D--5-5-5-5-5-5-5-5--0--0-0-0----0-0-0-0--2-2-2-2-2-2-2-2--5-5-5-5-5-5-5-5-|
G--5-5-5-5-5-5-5-5--0--0-0-0----0-0-0-0--4-4-4-4-4-4-4-4--5-5-5-5-5-5-5-5-|
D-------------------0--0-0-0--4----------2-2-2-2-2-2-2-2------------------|


D--0-0-0-0-0-0-0-0--0--0-0-0----0-0-0-0---0-------------------------------|
B--5-5-5-5-5-5-5-5--0--0-0-0----0-0-0-0---7-------------------------------|
G--0-0-0-0-0-0-0-0--1/44-4-4----0-0-0-0---0-------------------------------|
D--5-5-5-5-5-5-5-5--0--0-0-0----0-0-0-0---7-------------------------------|
G--5-5-5-5-5-5-5-5--0--0-0-0----0-0-0-0---7-------------------------------|
D-------------------0--0-0-0--4-------------------------------------------|

Verse 2: part 1


D|---------------------------------------12-10-9--------------------------|
B|--12-----------13------------10--------------------8---------7----------|
G|-----0------------0-------------0--------------------0---------0--------|
D|-------0------------0-------------0--------------------0---------0------|
G|--12-----12-12-12-----12-12--11-----11-11-11-11-11-9-----9-9-9-----9-9--|
D|------------------------------------------------------------------------|

D|------------------------------------------------------------------------|
B|--3h5-------3h5---------------------------------------------------------|
G|------0---------0-------------------------------------------------------|
D|--------0---------0-----------------------------------------------------|
G|--5-------5-5-------5---------------------------------------------------|
D|------------------------------------------------------------------------|

D|---------------------------------------12-10-9--------------------------|
B|--12-----------13------------10--------------------8---------7----------|
G|-----0------------0-------------0--------------------0---------0--------|
D|-------0------------0-------------0--------------------0---------0------|
G|--12-----12-12-12-----12-12--11-----11-11-11-11-11-9-----9-9-9-----9-9--|
D|------------------------------------------------------------------------|

D|------------------------------------------------------------------------|
B|--------5-------5-------5-------5---------------------------------------|
G|------0-------0-------0-------0-----------------------------------------|
D|----5-------5-------5-------5-------------------------------------------|
G|--5-------5-------5-------5---------------------------------------------|
D|------------------------------------------------------------------------|

Verse 2: part 2

D|--0--0-0-0-0-0-0--0--0-0-0-0-0-0--0-0-0-0-0-0-0-0-0-0-0-----------------|
B|--2--2-2-2-2-2-2--0--0-0-0-0-0-0--5-5-5-5/7/9-5-5-5-5/12----------------|
G|--0--0-0-0-0-0-0--0--0-0-0-0-0-0--0-0-0-0-0/0-0-0-0-0-0-----------------|
D|--2--2-2-2-2-2-2--4--4-4-4-4-4-4--5-5-5-5/7/9-5-5-5-5/12----------------|
G|--4--4-4-4-4-4-4--2--2-2-2-2-2-2--5-5-5-5/7/9-5-5-5-5/12----------------|
D|--2--2-2-2-2-2-2--0--0-0-0-0-0-0----------------------------------------|

D|--0--0-0-0-0-0-0--0--0-0-0-0-0-0--0-0-0-0-0-0-0-0-0-0-0-----------------|
B|--2--2-2-2-2-2-2--0--0-0-0-0-0-0--2-2-2-2-2-2-2-2-2-2-2-----------------|
G|--0--0-0-0-0-0-0--0--0-0-0-0-0-0--0-0-0-0-0-0-0-0-0-0-0-----------------|
D|--2--2-2-2-2-2-2--4--4-4-4-4-4-4--2-2-2-2-2-2-2-2-2-2-2-----------------|
G|--4--4-4-4-4-4-4--2--2-2-2-2-2-2--2-2-2-2-2-2-2-2-2-2-2-----------------|
D|--2--2-2-2-2-2-2--0--0-0-0-0-0-0--0-0-0-0-0-0-0-0-0-0-0-----------------|

chorus: 2

D--0-0-0-0-0-0-0-0--0--0-0-0----0-0-0-0--0-0-0-0-0-0-0-0--0-0-0-0-0-0-0-0-|
B--5-5-5-5-5-5-5-5--0--0-0-0----0-0-0-0--2-2-2-2-2-2-2-2--5-5-5-5-5-5-5-5-|
G--0-0-0-0-0-0-0-0--1/44-4-4----0-0-0-0--0-0-0-0-0-0-0-0--0-0-0-0-0-0-0-0-|
D--5-5-5-5-5-5-5-5--0--0-0-0----0-0-0-0--2-2-2-2-2-2-2-2--5-5-5-5-5-5-5-5-|
G--5-5-5-5-5-5-5-5--0--0-0-0----0-0-0-0--4-4-4-4-4-4-4-4--5-5-5-5-5-5-5-5-|
D-------------------0--0-0-0--4----------2-2-2-2-2-2-2-2------------------|


D--0-0-0-0-0-0-0-0--0--0-0-0----0-0-0-0---0-0-0-0-0-0-0-0-----------------|
B--5-5-5-5-5-5-5-5--0--0-0-0----0-0-0-0---7-7-7-7-7-7-7-7-----------------|
G--0-0-0-0-0-0-0-0--1/44-4-4----0-0-0-0---0-0-0-0-0-0-0-0-----------------|
D--5-5-5-5-5-5-5-5--0--0-0-0----0-0-0-0---7-7-7-7-7-7-7-7-----------------|
G--5-5-5-5-5-5-5-5--0--0-0-0----0-0-0-0---7-7-7-7-7-7-7-7-----------------|
D-------------------0--0-0-0--4-------------------------------------------|

D--0-0-0-0-0-0-0-0--0--0-0-0----0-0-0-0--0-0-0-0-0-0-0-0--0-0-0-0-0-0-0-0-|
B--5-5-5-5-5-5-5-5--0--0-0-0----0-0-0-0--2-2-2-2-2-2-2-2--5-5-5-5-5-5-5-5-|
G--0-0-0-0-0-0-0-0--1/44-4-4----0-0-0-0--0-0-0-0-0-0-0-0--0-0-0-0-0-0-0-0-|
D--5-5-5-5-5-5-5-5--0--0-0-0----0-0-0-0--2-2-2-2-2-2-2-2--5-5-5-5-5-5-5-5-|
G--5-5-5-5-5-5-5-5--0--0-0-0----0-0-0-0--4-4-4-4-4-4-4-4--5-5-5-5-5-5-5-5-|
D-------------------0--0-0-0--4----------2-2-2-2-2-2-2-2------------------|

D--0-0-0-0-0-0-0-0--0--0-0-0----0-0-0-0---0-0-0-0-0-0-0-0-----------------|
B--5-5-5-5-5-5-5-5--0--0-0-0----0-0-0-0---7-7-7-7-7-7-7-7-----------------|
G--0-0-0-0-0-0-0-0--1/44-4-4----0-0-0-0---0-0-0-0-0-0-0-0-----------------|
D--5-5-5-5-5-5-5-5--0--0-0-0----0-0-0-0---7-7-7-7-7-7-7-7-----------------|
G--5-5-5-5-5-5-5-5--0--0-0-0----0-0-0-0---7-7-7-7-7-7-7-7-----------------|
D-------------------0--0-0-0--4-------------------------------------------|

Bridge:

D|-----------------------------------------------------------------------|
B|-----------------------------------------------------------------------|
G|-----------------------------------------------------------------------|
D|-2---2/4--2/4/5--5-7-9---11--14--10---10-9--5--------------------------|
G|-x---x----x--------x-----x---x---x----x--x--x--------------------------|
D|-2-0h2/4--2/4/5--5-7-9---11--14--10---10-9--5--------------------------|

Bridge: 2  :note keep normal struming pattern here

D|-----------------0------------0-----------0----------------------------|
B|-----------------2------------0-----------7----------------------------|
G|-----------------0------------0-----------0----------------------------|
D|---3-------------2------------0-----------7----------------------------|
G|---5-------------4------------7-----------7----------------------------|
D|---3-------------2------------5----------------------------------------|

D|-----------------0------------0----------------------------------------|
B|-----------------2------------0----------------------------------------|
G|-----------------0------------0----------------------------------------|
D|---3-------------2------------0-----------5----------------------------|
G|---5-------------4------------7-----------7--7/9-11-12-11-9-7----------|
D|---3-------------2------------5-----------5--5/7/9--10-9--7-5----------|

D|-----------------0------------0-----------0----------------------------|
B|-----------------2------------0-----------7----------------------------|
G|-----------------0------------0-----------0----------------------------|
D|---3-------------2------------0-----------7----------------------------|
G|---5-------------4------------7-----------7----------------------------|
D|---3-------------2------------5----------------------------------------|

D|-----------------0------------0----------------------------------------|
B|-----------------2------------7----------------------------------------|
G|-----------------0------------0----------------------------------------|
D|---3-------------2------------7----------------------------------------|
G|---5-------------4------------7----------------------------------------|
D|---3-------------2-----------------------------------------------------|

chorus: 3

D--0-0-0-0-0-0-0-0--0--0-0-0----0-0-0-0--0-0-0-0-0-0-0-0--0-0-0-0-0-0-0-0-|
B--5-5-5-5-5-5-5-5--0--0-0-0----0-0-0-0--2-2-2-2-2-2-2-2--5-5-5-5-5-5-5-5-|
G--0-0-0-0-0-0-0-0--1/44-4-4----0-0-0-0--0-0-0-0-0-0-0-0--0-0-0-0-0-0-0-0-|
D--5-5-5-5-5-5-5-5--0--0-0-0----0-0-0-0--2-2-2-2-2-2-2-2--5-5-5-5-5-5-5-5-|
G--5-5-5-5-5-5-5-5--0--0-0-0----0-0-0-0--4-4-4-4-4-4-4-4--5-5-5-5-5-5-5-5-|
D-------------------0--0-0-0--4----------2-2-2-2-2-2-2-2------------------|


D--0-0-0-0-0-0-0-0--0--0-0-0----0-0-0-0---0-------------------------------|
B--5-5-5-5-5-5-5-5--0--0-0-0----0-0-0-0---7-------------------------------|
G--0-0-0-0-0-0-0-0--1/44-4-4----0-0-0-0---0-------------------------------|
D--5-5-5-5-5-5-5-5--0--0-0-0----0-0-0-0---7-------------------------------|
G--5-5-5-5-5-5-5-5--0--0-0-0----0-0-0-0---7-------------------------------|
D-------------------0--0-0-0--4-------------------------------------------|

D--0-0-0-0-0-0-0-0--0--0-0-0----0-0-0-0--0-0-0-0-0-0-0-0--0-0-0-0-0-0-0-0-|
B--5-5-5-5-5-5-5-5--0--0-0-0----0-0-0-0--2-2-2-2-2-2-2-2--5-5-5-5-5-5-5-5-|
G--0-0-0-0-0-0-0-0--1/44-4-4----0-0-0-0--0-0-0-0-0-0-0-0--0-0-0-0-0-0-0-0-|
D--5-5-5-5-5-5-5-5--0--0-0-0----0-0-0-0--2-2-2-2-2-2-2-2--5-5-5-5-5-5-5-5-|
G--5-5-5-5-5-5-5-5--0--0-0-0----0-0-0-0--4-4-4-4-4-4-4-4--5-5-5-5-5-5-5-5-|
D-------------------0--0-0-0--4----------2-2-2-2-2-2-2-2------------------|

D--0-0-0-0-0-0-0-0--0--0-0-0----0-0-0-0---0-0-0-0-0-0-0-0-----------------|
B--5-5-5-5-5-5-5-5--0--0-0-0----0-0-0-0---7-7-7-7-7-7-7-7-----------------|
G--0-0-0-0-0-0-0-0--1/44-4-4----0-0-0-0---0-0-0-0-0-0-0-0-----------------|
D--5-5-5-5-5-5-5-5--0--0-0-0----0-0-0-0---7-7-7-7-7-7-7-7-----------------|
G--5-5-5-5-5-5-5-5--0--0-0-0----0-0-0-0---7-7-7-7-7-7-7-7-----------------|
D-------------------0--0-0-0--4-------------------------------------------|

D--0-0-0-0-0-0-0-0--0--0-0-0----0-0-0-0--0-0-0-0-0-0-0-0--0-0-0-0-0-0-0-0-|
B--5-5-5-5-5-5-5-5--0--0-0-0----0-0-0-0--2-2-2-2-2-2-2-2--5-5-5-5-5-5-5-5-|
G--0-0-0-0-0-0-0-0--1/44-4-4----0-0-0-0--0-0-0-0-0-0-0-0--0-0-0-0-0-0-0-0-|
D--5-5-5-5-5-5-5-5--0--0-0-0----0-0-0-0--2-2-2-2-2-2-2-2--5-5-5-5-5-5-5-5-|
G--5-5-5-5-5-5-5-5--0--0-0-0----0-0-0-0--4-4-4-4-4-4-4-4--5-5-5-5-5-5-5-5-|
D-------------------0--0-0-0--4----------2-2-2-2-2-2-2-2------------------|


end bridge:

D|-----------------------------------------------------------------------|
B|-----------------------------------------------------------------------|
G|-----------------------------------------------------------------------|
D|-2---2/4--2/4/5--5-7-9---11--14--10---10-9--5--------------------------| x 4
G|-x---x----x--------x-----x---x---x----x--x--x--------------------------|
D|-2-0h2/4--2/4/5--5-7-9---11--14--10---10-9--5--------------------------|

end

well i hope your enjoy my tab,  feel free to comment and rate
Tap to rate this tab
 
# A B C D E F G H I J K L M N O P Q R S T U V W X Y Z