Alter Bridge - Ghost Of Days Gone By tab

----------------------------------------------------------------------------
GHOST OF DAYS GONE BY - Alter Bridge
----------------------------------------------------------------------------
Tabbed by: Alterincubus

Tuning: Open d5 down half a step (Db Db Ab Db Ab Db)

I didn't tab out what Myles plays during the intro and verse, cuz the other tab has that for you.

Intro/Verse

D|-------------------------------------------------------------------------|
D|0h2-4-2-0-------0---------------0-----------------------------2p0-0------|
A|----------5\4-----4-----------------4-----------5-2-4-----2h4-----------0|
D|------------------------------4-----2---------2---------2----------------|
A|----------2---2-----2-2-2-2-2-----0-0-0-0-0-0---0-0-0-0------------------|
D|0---0-------------------------------------------------------------5-5-5-5|
  The misery...                       friend...                     creeping


|-----------------------------------------------------------|--|
|--------------------------------------------0--------------|--|
|-----------------------------------------------------------|--|
|-----0-------------0-4p2p0----------------------12---------|--|
|---------------------------------------9/10-----9----------|--|
|-5-5-5-5-5-5-5-5-5---------0-0-0-0-0-0--------0----0-0-0-0-|0-|
                    again...                              only played first 
                                                           two times  
     

then he slides into the chorus, you can figure out the strum pattern

|-------------0-------0--------------------------0-----------|
|-------------0-------0-----------------2--------0-----------|
|-----------5-5-------5----------4------4------5-5----5------|
|-----------5-5-----2-2----------4------2------5-5----2------|
|-15\-------5-5-----2-2----------2------0------5-5----2------|
|-15\-------5-5-----2-2----------0-------------5-5----2------|
  Do you    feel... once...yesterday...again…  ever...ghost...


intro/verse 3 times again, followed by the chorus, then


 ^upstroke
|-0-|
|-0-|
|-0-|
|-0-|
|-0-|
|-0-|


Bridge
|---------------------------------------|
|---------------------------------------|
|-------------------------------------0-|
|-------------------------------------0-|
|-1-------------------5-----5-----1-1-0-|
|---4-4-4-4-4-4-4-3-3---3-3---1-0-1-1-0-| x2
    + + + + + + + + +   + +   + + + +


|---------------------------------|
|---------------------------------|
|---------------------------------|
|---------------------------------|
|-1-------------------5-----5-----|
|---4-4-4-4-4-4-4-3-3---3-3---1-0-| x3
    + + + + + + + + +   + +   + +
  

|----------------------------|
|-------------------------5*-|
|-------------------------5*-|
|----------------------------|
|-1-------------------5------|
|---4-4-4-4-4-4-4-3-3---3----| x1
    + + + + + + + + +   +


|------------------------------|
|---------4--------------3-----|
|---------4--------------3-----|
|-8-4-----4--4-----3-0---3-1-0-|
|-8-4-4-4-4--4-0-0-3-0-0-3-1-0-|
|-8-4-4-4-4--4-0-0-3-0-0-3-1-0-| x4
      + +      + +     +


Solo

|------------------------------------------0-0--0---0--0--0--0--0--0-----|
|----------0---0--0--0--0--0-0-----0-------0-0-/12--12-12-12-11-12-12/16-|
|---------/12--12-12-12-10-9-9/10--10/12~--------------------------------|
|-/17\-------------------------------------------------------------------|
|------------------------------------------------------------------------|
|------------------------------------------------------------------------|

|-0----0-----------0-0----------------------------------------------------|
|-16~--16b17rb16~--0-0-----------12--------12--------12-16-14-12----------|
|--------------------------16--------16--------16----------------16-14-12-|
|-------------------------------------------------------------------------|
|-----------------------14----14--------14--------14----------------------|
|-------------------------------------------------------------------------|

|-----------------------------------|
|----------12--------11---------14~-|
|----12--------12--------12---------|
|-----------------------------------|
|-12----12--------12--------12------|
|-----------------------------------|


Chorus


Outro
|------------------------------|
|---------4--------------3-----|
|---------4--------------3-----|
|-8-4-----4--4-----3-0---3-1-0-|
|-8-4-4-4-4--4-0-0-3-0-0-3-1-0-|
|-8-4-4-4-4--4-0-0-3-0-0-3-1-0-| x8
      + +      + +     +



And thats it! I hope it helped

************************************

| /   slide up
| \   slide down
| h   hammer-on
| p   pull-off
| ~   vibrato
| *   harmonic
| +   palm mute
| b   Bend
| rb  release bend
| brb Bend release bend

************************************
Tap to rate this tab
 
# A B C D E F G H I J K L M N O P Q R S T U V W X Y Z