Song name
# A B C D E F G H I J K L M N O P Q R S T U V W X Y Z

Alter Bridge - Isolation tab

--------------------------------------------------------------------------------
                            Isolation - Alter Bridge
--------------------------------------------------------------------------------
Tabbed by: SeaniBoi94
Email: seani_boi_94@hotmail.com

Greetings UG Community, this will be my first tab so hopefully I can get off to
a reasonable start...this tab details only the solo's in Isolation, the other
tab will give you everything else but I decided to transcribe the solo's myself
as the one's featured in the other tab just didn't sound quite right to my ear.
The first solo, most prominently, although the other two have had some tweaks
here and there. I am open to and welcome any and all suggestions for improvement.
So please, rate, comment and enjoy!

Tuning: C G C F A D (Drop C)

Mark's First Solo (00:45) :

D|--------------------------------------------------------10-----------------|
A|--10---------10h13p10h13------10--------9-10----------9--------------------|
F|-----12-12ph-------------11ph-------12b---------10-12------13ph-12-10------|
C|---------------------------------12----------12----------------------------|
G|---------------------------------------------------------------------------|
C|---------------------------------------------------------------------------|

D|--14-10h14p10\8-10-8----8--------------------------------------------------|
A|---------------------10---10-8-/13-10----10--------------------------------|
F|--------------------------------------13----13-10--------------------------|
C|--------------------------------------------------12~----------------------|
G|---------------------------------------------------------------------------|
C|---------------------------------------------------------------------------|

Mark's Second Solo (1:49) :

D|--/13----------15----------13----------15----------------------12-15-------|
A|------15p13p10----15p13p10----15p13p10----15p13p10-13ph-/10-13-------------|
F|---------------------------------------------------------------------------|
C|---------------------------------------------------------------------------|
G|---------------------------------------------------------------------------|
C|---------------------------------------------------------------------------|

D|--15phbr---12--------------------------------------------------------------|
A|--------15----13-12\10----13-----------------------------------------------|
F|-----------------------12----10~-------------------------------------------|
C|---------------------------------------------------------------------------|
G|---------------------------------------------------------------------------|
C|---------------------------------------------------------------------------|

Myles' Solo (2:30) :

Note : During the first two bends, bend the 12th fret up to 14, the third bend
       up a little higher and the fourth bend higher than that.

D|-------------------------------------------------------10-------10-12------|
A|--10--10--10--10--13---10--------------------10-13--------10-13-------13---|
F|--12b-12b-12b-12b-15br----13-12-10----10-12b-------12b---------------------|
C|-----------------------------------12--------------------------------------|
G|---------------------------------------------------------------------------|
C|---------------------------------------------------------------------------|

D|--10-----------------------------------------------------------------------|
A|-----13b~-15p13p10----15p13p10----15p13p10----15p13p10-15p13p10----10------|
F|-------------------12----------12----------12-------------------12----13---|
C|---------------------------------------------------------------------------|
G|---------------------------------------------------------------------------|
C|---------------------------------------------------------------------------|

D|--------------10--------------10-------------------------------------------|
A|--10-----------------------------------------------------------------------|
F|-----12\10-------13-12-10--------13-12-10----10----------------------------|
C|-----------12-------------12~-------------12----12-10---------------10-12--|
G|------------------------------------------------------12-10\8-10/12--------|
C|---------------------------------------------------------------------------|

D|---------------------------------------------------------------------------|
A|--------10-11-12-13b~------------------------------------------------------|
F|--10-12--------------------------------------------------------------------|
C|---------------------------------------------------------------------------|
G|---------------------------------------------------------------------------|
C|---------------------------------------------------------------------------|


************************************

| /   slide up
| \   slide down
| h   hammer-on
| p   pull-off
| ~   vibrato
| +   harmonic
| x   Mute note
| b   Bend
| pb  Pre-bend
| ph  Pinch harmonic
| br  Bend release
| pbr Pre-bend release
| brb Bend release bend

************************************
Tap to rate this tab
 
# A B C D E F G H I J K L M N O P Q R S T U V W X Y Z