Song name
# A B C D E F G H I J K L M N O P Q R S T U V W X Y Z

Alter Bridge - The Uninvited tab

Pre Verse

Eb|-------------------------------------------------------------------------|
Bb|-------------------------------------------------------------------------|
Gb|-------------------------------------------------------------------------|
Db|-------------------------------------------------------------------------|
Ab|------------------8--------------------7--------------------6------------|
Db|---0---0---0h7h10---0---0---0---0h7h10---0---0---0---0h7h10---0---0---0--|

---------------------------------|
---------------------------------|
---------------------------------|
---------------------------------|
---------10-------12p10----------|
-0h10h13----13p10-------13p12p10-|


Verse (Palm Mute All)
^ Signifies Metal Gallop

Eb|-------------------------------------------------------------------|
Bb|-------------------------------------------------------------------|
Gb|-------------------------------------------------------------------|
Db|-------------------------------------------------------------------|
Ab|----------------8--------------------7--------------------6--------|
Db|-0---0-0-0-0710---0---0---0-0-0-0710---0---0---0-0-0-0710---0---0--|
              ^^^                  ^^^                  ^^^           |

-------------------------------------|
-------------------------------------|
-------------------------------------|
-------------------------------------|
-------------10-------12-10----------|
-0-0-0-01013----13-10-------13-12-10-|
       ^ ^ ^ 
Pre Chorus
^ Signifies Palm Mute/Metal Gallop

Eb|-------------------------------------------------------------------|
Bb|-------------------------------------------------------------------|
Gb|-5---5-----------4---4-----------3---3-----------------------------|
Db|-3---3-----------2---2-----------3---3-----------1---0-------------|
Ab|-3---3---0-000---2---2---0-000---1---1---0-000---1---0---0-000-000-|
Db|-3---3---0-000---2---2---0-000---1---1---0-000---1---0---0-000-000-|
            ^ ^^^           ^ ^^^           ^ ^^^           ^ ^^^ ^^^

Chorus

Eb|-------------------------------------------------------------------|
Bb|-------------------------------------------------------------------|
Gb|-------------------------------------------7/9---------------------|
Db|-3-3-3-3-3-3-3-3--5-5-5-5-5-5-5-5--0-0-0-0-----6-6-6-6-6-6-6-5-5-5-|
Ab|-3-3-3-3-3-3-3-3--5-5-5-5-5-5-5-5--0-0-0-0-5/7-6-6-6-6-6-6-6-5-5-5-|
Db|-3-3-3-3-3-3-3-3--5-5-5-5-5-5-5-5--0-0-0-0-----6-6-6-6-6-6-6-5-5-5-|
Tap to rate this tab
 
# A B C D E F G H I J K L M N O P Q R S T U V W X Y Z