Song name
# A B C D E F G H I J K L M N O P Q R S T U V W X Y Z

Alter Bridge - Cry Of Achilles tab

Acoustic Intro

Eb|-------------|   <---
Bb|-------0---1-|     |
Gb|---2---2---2-| x4  |
Db|-----2---2---|     |
Ab|-0-----------|     |
Eb|-------------|     |
                      | 
Eb|-------------|     |
Bb|---0---0---3-|     |
Gb|-----1-1-1-1-| x2  |---x2
Db|-------------|     |
Ab|-0-----------|     |
Eb|-------------|     |
                      |
Eb|--------------|    |
Bb|-----0---0----|    |
Gb|---7---7---10-| x2 |
Db|---9---9---9--|    |
Ab|-0------------|    |
Eb|--------------|  <---

Eb|-------------|   
Bb|-------0---1-|     
Gb|---2---2---2-| x4  
Db|-----2---2---|     
Ab|-0-----------|     
Eb|-------------|

Eb|-------------|   
Bb|-------1---3-|     
Gb|---0---0---0-| x4  
Db|-----2---2---|     
Ab|-------------|     
Eb|-3-----------|

Eb|-------------------------------------------------|   
Bb|-------1---3-------1---3-------1---1-------0---0-|     
Gb|---2---2---2---2---2---2---2---2---2---2---2---2-|  
Db|-----0---0-------0---0-------0---0-------0---0---|     
Ab|-------------------------------------------------|     
Eb|-2-----------2-----------2-----------2-----------|

Eb|---------------------------------------------------------------------------------|   
Bb|------------------------------6-5-4-----5-4--------------------------------------|     
Gb|------------------------------------5-4-----5-4----------------------------------|  
Db|---0------0------0-------0----------------------/9-7-6-6h7p6---6-----------5-----|     
Ab|-----2------5------8-------11--------------------------------8---8-7-5-7-8---8-7-|     
Eb|-0-----/4-----/7-----/10---------------------------------------------------------|
Tap to rate this tab
 
# A B C D E F G H I J K L M N O P Q R S T U V W X Y Z