Song name
# A B C D E F G H I J K L M N O P Q R S T U V W X Y Z

Alter Bridge - Peace Is Broken tab

Intro
^ Signifies palm mute/metal gallop

Eb|---------------------------------------------------------------------------|
Bb|---------------------------------------------------------------------------|
Gb|---------------------------------------------------------------------------|
Db|---------------------------------------------------------------------------|
Ab|-------------------------875-75--5--------------------------------87567b11-|
Eb|-4-00-3-0-00-4-00-3-00-0----8--87-875-4-00-3-0-00-4-00-3-00-0-0-0----------|
      ^^     ^^   ^^   ^^   ^^^^^^^^^^^^   ^^     ^^   ^^   ^^       ^^^^ 

Verse

Eb|---------------------------------------------------------------------------|
Bb|---------------------------------------------------------------------------|
Gb|---------------------------------------------------------------------------|
Db|---------------------------------------------------------------------------|
Ab|-------------------------875-75--5--------------------------------87567b11-|
Eb|-4-00-3-0-00-4-00-3-00-0----8--87-875-4-00-3-0-00-4-00-3-00-0-0-0----------|
      ^^     ^^   ^^   ^^   ^^^^^^^^^^^^   ^^     ^^   ^^   ^^       ^^^^ 
Eb|---------------------------------------------------------------------------|
Bb|---------------------------------------------------------------------------|
Gb|---------------------------------------------------------------------------|
Db|-----------------------------43--51----------------------------------------|
Ab|-7-33-5-3-33-7-33-5-33-3-3-3---63--42-3-00-2-0-00-3-00-2-00-0-0-0-320-20---|
Eb|---------------------------------------------------------------------3--32-|
      ^^     ^^   ^^   ^^       ^^^^^^^^   ^^     ^^   ^^   ^^       ^^^^^^^^

Pre Chorus

Eb|------------------------0-|
Bb|------------------------0-|
Gb|------------------------3-|
Db|------------------------2-|
Ab|-6---5-2--6---5---2---2-2-|
Eb|-4---3-0--4---3---0---0-0-|

Chorus Chords

Eb|-------------|
Bb|-------------|
Gb|-------------|
Db|-5----7----2-|
Ab|-5----5----0-|
Eb|-3----5----0-|    
Tap to rate this tab
# A B C D E F G H I J K L M N O P Q R S T U V W X Y Z