Song name
# A B C D E F G H I J K L M N O P Q R S T U V W X Y Z

Alter Bridge - Burn It Down tab

This is the solo from the intro of Buried Alive 100% correct as Tremonti himself
teached this on his instructional DVD.

Intro Solo: part A
D#|-------------------|-------------|--------------------------------|
A#|-------------------|-------------|-13---10--------------13--------|
F#|-------------10----|-10h12--12~~-|-12fb-10----------/14----14-----|
C#|----------12----12-|-------------|---------12~~-------------------|
G#|-------------------|-------------|--------------------------------|
C#|-------------------|-------------|--------------------------------|


D#|------------------------------------------------|
A#|-13h15p13----13----13-10----------------13b15~~-|
F#|----------14----14-------12-12p10---------------|
C#|----------------------------------12------------|
G#|------------------------------------------------|
C#|------------------------------------------------|

Intro Solo: part B                                      Tb: tremolo bends
D#|-15fb-13fb------------------|----------------------------------------------|
A#|-----------15~~-10-10-13----|-13-------------------------------------------|
F#|----------------10----------|-12fb-12p10h12tb-10h12tb-10h12tb--10h12-12~~~~|
C#|----------------------------|----------------------------------------------|
G#|----------------------------|----------------------------------------------|
C#|----------------------------|----------------------------------------------|


D#|-10~-10-14-----10-----------------------------------------|
A#|-----------13fb-----10-13----10---------------------------|
F#|-------------------------12fb---14r14r12-10----12----10~~-|
C#|--------------------------------------------12----12------|
G#|----------------------------------------------------------|
C#|----------------------------------------------------------|

Intro Solo: part C
D#|-------------12~------------------------------------------------------|
A#|-------10h13-----13p10----13~-----------------------------------------|
F#|-10h12-----------------12-----12p10----14~----------------------------|
C#|------------------------------------12-----12p10----14~-12p10----12~--|
G#|-------------------------------------------------12-----------12------|
C#|----------------------------------------------------------------------|
        speedy bend
D#|---------------------17b19r17-19b22~~--------------------------------------|
A#|-10fb---13fb--10fb--------------------13fb-13------------------------------|
F#|-10fb---12fb--10fb----------------------------13-12-10-12-12fb-12fb-10~~---|
C#|---------------------------------------------------------------------------|
G#|---------------------------------------------------------------------------|
C#|---------------------------------------------------------------------------|
Tap to rate this tab
 
# A B C D E F G H I J K L M N O P Q R S T U V W X Y Z