Song name
# A B C D E F G H I J K L M N O P Q R S T U V W X Y Z

Alter Bridge - Addicted To Pain tab

Well guys this is my first tab on UG so I hope you guys enjoy it.
I am still working on the solo, so I'll put it up later on and even do a tutorial video 
on You Tube explaining how to play it.
But till then, enjoy the rest of the song...

Tuning: Drop D half step down (Db Ab Db Gb Bb Eb)

Intro:

Eb----------------------------------------------------------------------|
Bb----------------------------------------------------------------------|
Gb----------------------------------------------------------------------|
Db----------------------------------------------------------------------|
Ab----------------------------------------------------------------------|
Db-0--0--0--0--12b-12b-12b--0--10-10-10--0--0--0--0--6b-6b-6b--0--4-4-4-|

Eb----------------------------------------------------------------------|
Bb----------------------------------------------------------------------|
Gb----------------------------------------------------------------------|
Db----------------------------------------------------------------------|
Ab----------------------------------------------------------------------|
Db-0--0--0--0--12b-12b-12b--0--10-10-10--0--0--0--0--1-1-1-1-1-1-1-1----|
                                                     * * * * * * * *
Eb----------------------------------------------------------------------|
Bb----------------------------------------------------------------------|
Gb----------------------------------------------------------------------|
Db----------------------------------------------------------------------|
Ab----------------------------------------------------------------------|
Db-0--0--0--0--12b-12b-12b--0--10-10-10--0--0--0--0--6b-6b-6b--0--4-4-4-|

Eb----------------------------------------------------------------------|
Bb----------------------------------------------------------------------|
Gb----------------------------------------------------------------------|
Db----------------------------------------------------------------------|
Ab----------------------------------------------------------------------|
Db-0--0--0--0--12b-12b-12b--0--10-10-10--0--0--0--0--1-1-1-1-1-1-1-1----|
                                                     * * * * * * * *
Pre-Verse 1:

Eb-------------------------------------------------------------------------------|
Bb-------------------------------------------------------------------------------|
Gb-------------------------------------------------------------------------------|
Db-------------------------------------------------------------------------------|
Ab-12----------------12-----------------12-----------------12----13-12-----------|
Db---0-0-0-0-0-12-13----0-0-0-0-0-12-13----0-0-0-0-0-12-13----0-0-----13-12-13---|
     * * * * * *        * * * * * *        * * * * * *        * *
Eb-------------------------------------------------------------------------------|
Bb-------------------------------------------------------------------------------|
Gb-------------------------------------------------------------------------------|
Db-------------------------------------------------------------------------------|
Ab-12----------------12-----------------12-----------------12----15-12-----------|
Db---0-0-0-0-0-12-13----0-0-0-0-0-12-13----0-0-0-0-0-12-13----0-0-----13-12-13---|
     * * * * * *        * * * * * *        * * * * * *        * *
Verse:

Eb-------------------------------------------------------------------------------|
Bb-------------------------------------------------------------------------------|
Gb-------------------------------------------------------------------------------|
Db-------------------------------------------------------------------------------|
Ab-12----------------12-----------------12-----------------12----13-12-----------|
Db---0-0-0-0-0-12-13----0-0-0-0-0-12-13----0-0-0-0-0-12-13----0-0-----13-12-13---|
     * * * * * *        * * * * * *        * * * * * *        * *
Eb---------------------------------------------------------------------------------------|
Bb---------------------------------------------------------------------------------------|
Gb---------------------------------------------------------------------------------------|
Db---------------------------------------------------------------------------------------|
Ab----------------------12---------------------12----------------------12-15-12----------|
Db-15-15-15-15-15-13-15---15-15-15-15-15-13-15----15-15-15-15-15-13-15---------12-10-12--|
   *  *  *  *  *  *        *  *  *  *  *  *        *  *  *  *  *  *
Eb-------------------------------------------------------------------------------|
Bb-------------------------------------------------------------------------------|
Gb-------------------------------------------------------------------------------|
Db-------------------------------------------------------------------------------|
Ab----------------------12-----------------------12-12-12-12---------------------|
Db-10-10-10-10-10-10-12----10-10-10-10-10-8-8-8-8------------7-7-7-7-3-3-3-3-----|
      *  *  *  *  *        *  *  *  *  *  * * * *            * * * * * * * *
Eb-------------------------------------------------------------------------------|
Bb-------------------------------------------------------------------------------|
Gb-------------------------------------------------------------------------------|
Db----------------------------------------------------8----7---------------------|
Ab----------------------------------------------------8----7---------------------|
Db-10-0-0-0-0-0-0-0-10-0-0-0-0-0-0-0-10-0-0-0-0-0-0-0-8----7---------------------|
      * * * * * * *    * * * * * * *    * * * * * * *

Eb-------------------------------------------------------------------------------|
Bb-------------------------------------------------------------------------------|
Gb-------------------------------------------------------------------------------|
Db-------------------------------------------------------------------------------|
Ab-12----------------12-----------------12-----------------12----13-12-----------|
Db---0-0-0-0-0-12-13----0-0-0-0-0-12-13----0-0-0-0-0-12-13----0-0-----13-12-13---|
     * * * * * *        * * * * * *        * * * * * *        * *
Eb---------------------------------------------------------------------------------------|
Bb---------------------------------------------------------------------------------------|
Gb---------------------------------------------------------------------------------------|
Db---------------------------------------------------------------------------------------|
Ab----------------------12---------------------12----------------------12-15-12----------|
Db-15-15-15-15-15-13-15---15-15-15-15-15-13-15----15-15-15-15-15-13-15---------12-10-12--|
   *  *  *  *  *  *        *  *  *  *  *  *        *  *  *  *  *  *
Eb-------------------------------------------------------------------------------|
Bb-------------------------------------------------------------------------------|
Gb-------------------------------------------------------------------------------|
Db-------------------------------------------------------------------------------|
Ab----------------------12-----------------------12-12-12-12---------------------|
Db-10-10-10-10-10-10-12----10-10-10-10-10-8-8-8-8------------7-7-7-7-3-3-3-3-----|
      *  *  *  *  *        *  *  *  *  *  * * * *            * * * * * * * *
Eb-------------------------------------------------------------------------------|
Bb-------------------------------------------------------------------------------|
Gb-------------------------------------------------------------------------------|
Db----------------------------------------------------8----7---------------------|
Ab----------------------------------------------------8----7---------------------|
Db-10-0-0-0-0-0-0-0-10-0-0-0-0-0-0-0-10-0-0-0-0-0-0-0-8----7---------------------|
      * * * * * * *    * * * * * * *    * * * * * * *

Chorus:

Eb-------------------------------------------------------------------------------|
Bb-------------------------------------------------------------------------------|
Gb-7------9-----10-------------------------5------3------2-----------------------|
Db-7------9-----10---10--------------------3------1------0-----------------------|
Ab-5------7-----8----8---------------------3------1------0-----------------------|
Db-------------------8---------------------3------1------0-----------------------|


Eb-------------------------------------------------------------------------------|
Bb-------------------------------------------------------3-----------------------|
Gb-7------9-----10---------------------------------------2-----------------------|
Db-7------9-----10---10--------------------3------1------0-----------------------|
Ab-5------7-----8----8---------------------3------1------0-----------------------|
Db-------------------8---------------------3------1------0-----------------------|

Pre-Verse 2:

Eb-------------------------------------------------------------------------------|
Bb-------------------------------------------------------------------------------|
Gb-------------------------------------------------------------------------------|
Db-------------------------------------------------------------------------------|
Ab-12----------------12-----------------12-----------------12----15-12-----------|
Db---0-0-0-0-0-12-13----0-0-0-0-0-12-13----0-0-0-0-0-12-13----0-0-----13-12-13---|
     * * * * * *        * * * * * *        * * * * * *        * *
Verse:

Eb-------------------------------------------------------------------------------|
Bb-------------------------------------------------------------------------------|
Gb-------------------------------------------------------------------------------|
Db-------------------------------------------------------------------------------|
Ab-12----------------12-----------------12-----------------12----13-12-----------|
Db---0-0-0-0-0-12-13----0-0-0-0-0-12-13----0-0-0-0-0-12-13----0-0-----13-12-13---|
     * * * * * *        * * * * * *        * * * * * *        * *
Eb---------------------------------------------------------------------------------------|
Bb---------------------------------------------------------------------------------------|
Gb---------------------------------------------------------------------------------------|
Db---------------------------------------------------------------------------------------|
Ab----------------------12---------------------12----------------------12-15-12----------|
Db-15-15-15-15-15-13-15---15-15-15-15-15-13-15----15-15-15-15-15-13-15---------12-10-12--|
   *  *  *  *  *  *        *  *  *  *  *  *        *  *  *  *  *  *
Eb-------------------------------------------------------------------------------|
Bb-------------------------------------------------------------------------------|
Gb-------------------------------------------------------------------------------|
Db-------------------------------------------------------------------------------|
Ab----------------------12-----------------------12-12-12-12---------------------|
Db-10-10-10-10-10-10-12----10-10-10-10-10-8-8-8-8------------7-7-7-7-3-3-3-3-----|
      *  *  *  *  *        *  *  *  *  *  * * * *            * * * * * * * *
Eb-------------------------------------------------------------------------------|
Bb-------------------------------------------------------------------------------|
Gb-------------------------------------------------------------------------------|
Db----------------------------------------------------8----7---------------------|
Ab----------------------------------------------------8----7---------------------|
Db-10-0-0-0-0-0-0-0-10-0-0-0-0-0-0-0-10-0-0-0-0-0-0-0-8----7---------------------|
      * * * * * * *    * * * * * * *    * * * * * * *

Eb-------------------------------------------------------------------------------|
Bb-------------------------------------------------------------------------------|
Gb-------------------------------------------------------------------------------|
Db-------------------------------------------------------------------------------|
Ab-12----------------12-----------------12-----------------12----13-12-----------|
Db---0-0-0-0-0-12-13----0-0-0-0-0-12-13----0-0-0-0-0-12-13----0-0-----13-12-13---|
     * * * * * *        * * * * * *        * * * * * *        * *
Eb---------------------------------------------------------------------------------------|
Bb---------------------------------------------------------------------------------------|
Gb---------------------------------------------------------------------------------------|
Db---------------------------------------------------------------------------------------|
Ab----------------------12---------------------12----------------------12-15-12----------|
Db-15-15-15-15-15-13-15---15-15-15-15-15-13-15----15-15-15-15-15-13-15---------12-10-12--|
   *  *  *  *  *  *        *  *  *  *  *  *        *  *  *  *  *  *
Eb-------------------------------------------------------------------------------|
Bb-------------------------------------------------------------------------------|
Gb-------------------------------------------------------------------------------|
Db-------------------------------------------------------------------------------|
Ab----------------------12-----------------------12-12-12-12---------------------|
Db-10-10-10-10-10-10-12----10-10-10-10-10-8-8-8-8------------7-7-7-7-3-3-3-3-----|
      *  *  *  *  *        *  *  *  *  *  * * * *            * * * * * * * *
Eb-------------------------------------------------------------------------------|
Bb-------------------------------------------------------------------------------|
Gb-------------------------------------------------------------------------------|
Db----------------------------------------------------8----7---------------------|
Ab----------------------------------------------------8----7---------------------|
Db-10-0-0-0-0-0-0-0-10-0-0-0-0-0-0-0-10-0-0-0-0-0-0-0-8----7---------------------|
      * * * * * * *    * * * * * * *    * * * * * * *

Chorus:

Eb-------------------------------------------------------------------------------|
Bb-------------------------------------------------------------------------------|
Gb-7------9-----10-------------------------5------3------2-----------------------|
Db-7------9-----10---10--------------------3------1------0-----------------------|
Ab-5------7-----8----8---------------------3------1------0-----------------------|
Db-------------------8---------------------3------1------0-----------------------|


Eb-------------------------------------------------------------------------------|
Bb-------------------------------------------------------3-----------------------|
Gb-7------9-----10---------------------------------------2-----------------------|
Db-7------9-----10---10--------------------3------1------0-----------------------|
Ab-5------7-----8----8---------------------3------1------0-----------------------|
Db-------------------8---------------------3------1------0-----------------------|

Interlude:

Eb----------------------------------------------------------------------|
Bb----------------------------------------------------------------------|
Gb----------------------------------------------------------------------|
Db----------------------------------------------------------------------|
Ab----------------------------------------------------------------------|
Db-0--0--0--0--12b-12b-12b--0--10-10-10--0--0--0--0--6b-6b-6b--0--4-4-4-|

Eb----------------------------------------------------------------------|
Bb----------------------------------------------------------------------|
Gb----------------------------------------------------------------------|
Db----------------------------------------------------------------------|
Ab----------------------------------------------------------------------|
Db-0--0--0--0--12b-12b-12b--0--10-10-10--0--0--0--0--1-1-1-1-1-1-1-1----|
                                                     * * * * * * * *
Eb----------------------------------------------------------------------|
Bb----------------------------------------------------------------------|
Gb----------------------------------------------------------------------|
Db----------------------------------------------------------------------|
Ab----------------------------------------------------------------------|
Db-0--0--0--0--12b-12b-12b--0--10-10-10--0--0--0--0--6b-6b-6b--0--4-4-4-|

Eb----------------------------------------------------------------------|
Bb----------------------------------------------------------------------|
Gb----------------------------------------------------------------------|
Db----------------------------------------------------------------------|
Ab----------------------------------------------------------------------|
Db-0--0--0--0--12b-12b-12b--0--10-10-10--0--0--0--0--1-1-1-1-1-1-1-1----|
                                                     * * * * * * * *
Eb------------------------------------------------------------------------|
Bb------------------------------------13b-----------------------------13--|b
Gb------------------------------------------------------------------------|
Db------------------------------------------------------------------------|
Ab------------------------------------------------------------------------|
Db-0--0--0--0--12b-12b-12b--0--10-10-10--0--0--0--0--6b-6b-6b--0--4-4-4---|

Eb-----------------------------------------------------------------------|
Bb------------------------------------13b--------------------------------|
Gb-----------------------------------------------------------------------|
Db-----------------------------------------------------------------------|
Ab-----------------------------------------------------------------------|
Db-0--0--0--0--12b-12b-12b--0--10-10-10--0--0--0--0--1-1-1-1-1-1-1-1-----|
                                                     * * * * * * * *
Eb------------------------------------------------------------------------|
Bb------------------------------------13b-----------------------------13--|b
Gb------------------------------------------------------------------------|
Db------------------------------------------------------------------------|
Ab------------------------------------------------------------------------|
Db-0--0--0--0--12b-12b-12b--0--10-10-10--0--0--0--0--6b-6b-6b--0--4-4-4---|

Eb-----------------------------------------------------------------------|
Bb------------------------------------13b--------------------------------|
Gb-----------------------------------------------------------------------|
Db-----------------------------------------------------------------------|
Ab-----------------------------------------------------------------------|
Db-0--0--0--0--12b-12b-12b--0--10-10-10--0--0--0--0--1-1-1-1-1-1-1-1-----|
                                                     * * * * * * * *
Solo Rhythm:

Eb-----------------------------------------------------------------------|
Bb-----------------------------------------------------------------------|
Gb----------------------------------------------------------7--------0---|
Db-0----------------3----------------10----------------8----7--------0---|
Ab-0----------------3----------------10----------------8----7--------0---|
Db-0----------------3----------------10----------------8----7--------0---|

Eb-------------------------------------------------------------------------------|
Bb-------------------------------------------------------------------------------|
Gb-------------------------------------------------------------------------------|
Db-------------------------------------------------------------------------------|
Ab-12----------------12-----------------12-----------------12----13-12-----------|
Db---0-0-0-0-0-12-13----0-0-0-0-0-12-13----0-0-0-0-0-12-13----0-0-----13-12-13---|
     * * * * * *        * * * * * *        * * * * * *        * *
Eb---------------------------------------------------------------------------------------|
Bb---------------------------------------------------------------------------------------|
Gb---------------------------------------------------------------------------------------|
Db---------------------------------------------------------------------------------------|
Ab----------------------12---------------------12----------------------12-15-12----------|
Db-15-15-15-15-15-13-15---15-15-15-15-15-13-15----15-15-15-15-15-13-15---------12-10-12--|
   *  *  *  *  *  *        *  *  *  *  *  *        *  *  *  *  *  *
Eb-------------------------------------------------------------------------------|
Bb-------------------------------------------------------------------------------|
Gb-------------------------------------------------------------------------------|
Db-------------------------------------------------------------------------------|
Ab----------------------12-----------------------12-12-12-12---------------------|
Db-10-10-10-10-10-10-12----10-10-10-10-10-8-8-8-8------------7-7-7-7-3-3-3-3-----|
      *  *  *  *  *        *  *  *  *  *  * * * *            * * * * * * * *
Eb-------------------------------------------------------------------------------|
Bb-------------------------------------------------------------------------------|
Gb-------------------------------------------------------------------------------|
Db----------------------------------------------------8----7---------------------|
Ab----------------------------------------------------8----7---------------------|
Db----------------------------------------------------8----7---------------------|

Chorus:

Eb-------------------------------------------------------------------------------|
Bb-------------------------------------------------------------------------------|
Gb-7------9-----10-------------------------5------3------2-----------------------|
Db-7------9-----10---10--------------------3------1------0-----------------------|
Ab-5------7-----8----8---------------------3------1------0-----------------------|
Db-------------------8---------------------3------1------0-----------------------|


Eb-------------------------------------------------------------------------------|
Bb-------------------------------------------------------3-----------------------|
Gb-7------9-----10---------------------------------------2-----------------------|
Db-7------9-----10---10--------------------3------1------0-----------------------|
Ab-5------7-----8----8---------------------3------1------0-----------------------|
Db-------------------8---------------------3------1------0-----------------------|

Eb----------------------------------------------------------------------------------|
Bb-----------------------------------------3------1---------------------------------|
Gb-7------9-----10-------------------------5------3------2--------------------------|
Db-7------9-----10---10--------------------3------1------0--------------------------|
Ab-5------7-----8----8---------------------3------1------0--------------------------|
Db-------------------8---------------------3------1------0--------------------------|


Eb-------------------------------------------------------------------------------|
Bb-------------------------------------------------------3-----------------------|
Gb-7------9-----10---------------------------------------2-----------------------|
Db-7------9-----10---10--------------------3------1------0-----------------------|
Ab-5------7-----8----8---------------------3------1------0-----------------------|
Db-------------------8---------------------3------1------0-----------------------|

Outro:

Eb----------------------------------------------------------------------|
Bb----------------------------------------------------------------------|
Gb----------------------------------------------------------------------|
Db----------------------------------------------------------------------|
Ab----------------------------------------------------------------------|
Db-0--0--0--0--12b-12b-12b--0--10-10-10--0--0--0--0--6b-6b-6b--0--4-4-4-|

Eb----------------------------------------------------------------------|
Bb----------------------------------------------------------------------|
Gb----------------------------------------------------------------------|
Db----------------------------------------------------------------------|
Ab----------------------------------------------------------------------|
Db-0--0--0--0--12b-12b-12b--0--10-10-10--0--0--0--0--1-1-1-1-1-1-1-1----|
                                                     * * * * * * * *
Eb----------------------------------------------------------------------|
Bb----------------------------------------------------------------------|
Gb----------------------------------------------------------------------|
Db----------------------------------------------------------------------|
Ab----------------------------------------------------------------------|
Db-0--0--0--0--12b-12b-12b--0--10-10-10--0--0--0--0--6b-6b-6b--0--4-4-4-|

Eb----------------------------------------------------------------------|
Bb----------------------------------------------------------------------|
Gb----------------------------------------------------------------------|
Db----------------------------------------------------------------------|
Ab----------------------------------------------------------------------|
Db-0--0--0--0--12b-12b-12b--0--10-10-10--0--0--0--0--1-1-1-1-1-1-1-1----|
                                                     * * * * * * * *
Eb------------------------------------------------------------------------|
Bb------------------------------------13b-----------------------------13--|b
Gb------------------------------------------------------------------------|
Db------------------------------------------------------------------------|
Ab------------------------------------------------------------------------|
Db-0--0--0--0--12b-12b-12b--0--10-10-10--0--0--0--0--6b-6b-6b--0--4-4-4---|

Eb-----------------------------------------------------------------------|
Bb------------------------------------13b--------------------------------|
Gb-----------------------------------------------------------------------|
Db-----------------------------------------------------------------------|
Ab-----------------------------------------------------------------------|
Db-0--0--0--0--12b-12b-12b--0--10-10-10--0--0--0--0--1-1-1-1-1-1-1-1-----|
                                                     * * * * * * * *
Eb------------------------------------------------------------------------|
Bb------------------------------------13b-----------------------------13--|b
Gb------------------------------------------------------------------------|
Db------------------------------------------------------------------------|
Ab------------------------------------------------------------------------|
Db-0--0--0--0--12b-12b-12b--0--10-10-10--0--0--0--0--6b-6b-6b--0--4-4-4---|

Eb------------------------------------------------------------------------|
Bb------------------------------------13b---------------------------------|
Gb------------------------------------------------------------------------|
Db-------------------------------------------------------------------0----|
Ab-------------------------------------------------------------------0----|
Db-0--0--0--0--12b-12b-12b--0--10-10-10--0--0--0--0--1-1-1-1-1-1-1-1-0----|
                                                     * * * * * * * *

Please Rate, Comment, Like the tabs and tell me if you have any corrections
Tap to rate this tab
# A B C D E F G H I J K L M N O P Q R S T U V W X Y Z