Song name
# A B C D E F G H I J K L M N O P Q R S T U V W X Y Z

Alter Bridge - Addicted To Pain tab

So I finally came up with this tab. Not sure if it is correct. If you have any 
corrections please comment!



Eb-15b----13br------------------------------------------------------------------------------|
Bb------------15-15~---15-13h15p13-10h13p10-------------------------------------------------|
Gb------------------------------------------12-10-12b~-12r10-12~--10br9---------------------|
Db----------------------------------------------------------------------10-12-10------------|
Ab--------------------------------------------------------------------------------12-10-8\--|
Db------------------------------------------------------------------------------------------|

Eb---------------------------------------13/15\13---------------------|
Bb------13/15\13---------13/15\13------------------------13/15\13-----|
Gb--------------------------------------------------------------------|
Db-14-15---------15-14-15--------15-14-15--------15-14-15-------------|
Ab--------------------------------------------------------------------|
Db--------------------------------------------------------------------|

Eb-------------------10------------------------------------------------|
Bb-10-------------10----13-10------------------------------------------|
Gb---12-10-12-12b-------------12-10h12p10------------------------------|
Db---------------------------------------12-10h12p10----------3--------|
Ab--------------------------------------------------12-10\3-5---5~-----|
Db---------------------------------------------------------------------|



Eb---------------------------------------------------------------------|
Bb---------------------------------------------------/18-17~-----------|
Gb-5-----7-----10----9-----12-----10----15-----14----------------------|
Db---------------------------------------------------------------------|
Ab-3--0--5--0--8--0--7--0--10--0--8--0--13--0--12--0-------------------|
Db---------------------------------------------------------------------|
      *     *     *     *      *     *      *      *

Here, instead of doing hammers and pull offs try to pick all the notes
Eb------------------------------------------------------------------------------|
Bb------------------------------------------------------------------------------|
Gb----------12-14-15-14-12-------------------14-15-17-15-14---------------------|
Db-12-14-15----------------15-14-12\14-15-17----------------17-15-14\15-17-19---|
Ab------------------------------------------------------------------------------|
Db------------------------------------------------------------------------------|

Eb---------------------------------------------------------------------------------------|
Bb-------------------------------------20-18-17-20-18-17-20b~r20-18-17-------------------|
Gb-19-17-15-19-17-15-21-19-17-21-19-17-------------------------------19-17-------17-19~--|
Db-------------------------------------------------------------------------19------------|
Ab---------------------------------------------------------------------------------------|
Db---------------------------------------------------------------------------------------|

Eb--------------------------------------------------------------------|
Bb---------------------------------------------------------10---------|
Gb-5/10\7-5-7-5-7/12\7-5---5-7/10\7-5-7-5-7~---10~---12~--------------|
Db-----------------------7--------------------------------------------|
Ab--------------------------------------------------------------------|
Db--------------------------------------------------------------------|

   Chorus starts here
Eb--------------22~---------------------------------------22b---------|
Bb-22~-----20-22------------------------------------------------------|
Gb--------------------------------------------------------------------|
Db--------------------------------------------------------------------|
Ab--------------------------------------------------------------------|
Db--------------------------------------------------------------------|
Tap to rate this tab
# A B C D E F G H I J K L M N O P Q R S T U V W X Y Z