Song name
# A B C D E F G H I J K L M N O P Q R S T U V W X Y Z

Alter Bridge - One Day Remains drum

Song Title: One Day Remains
By: Alter Bridge
Tabbed by: James Parfitt (jxp955)

This is just my interpretation, and isn’t perfect

Drum Key:
C  = Crash Cymbal
C2 = 2nd Crash Cymbal
R  = Ride Cymbal
H  = Hi Hat
S  = Snare Drum
t  = Hi Tom
T  = Mid Tom
F  = Floor Tom
B  = Bass Drum
Hf = Hi Hat Floor Pedal

Notations:
x = Closed Hi Hat
o = Open Hi Hat
X = Harder Stroke
O = Harder Open Stroke
# = Choke Hi Hat (An Open Hi Hat that’s quickly closed afterwards)

d = Double Stroke (2 quick strokes in the space of one)
g = Ghost note (Very quiet stroke)
F = Flam (A quiet stroke followed almost instantly by a loud one)
t = A roll performed in triple time

 |1-+-2-+-3--+--4--+--| = Put under bar to help with timing

Time: 4/4 time
 |1-+-2-+-3-+-4-+-| omitted from under every bar to make it compact

Intro
C |----------------|----------------|----------------|------------X---|
S |----o--g-o--o---|----o--g-o--o---|----o--g-o--o---|----o--g-o--o---|
t |---------------o|---------------o|---------------o|---------------o|
T |-o--------------|-o--------------|-o--------------|-o--------------|
F |o---o---o---o---|o---o---o---o---|o---o---o---o---|o---o---o-------|
B |o--o--o----o----|o--o--o----o----|o--o--o----o----|o--o--o----o----|
  |1-+-2-+-3-+-4-+-|1-+-2-+-3-+-4-+-|1-+-2-+-3-+-4-+-|1-+-2-+-3-+-4-+-|

C2|X---------------|----------------|----------------|----------------|
S |----o--g-o--o---|----o--g-o--o---|----o--g-o--o--g|oooooooooooooooo|
t |---------------o|---------------o|----------------|----------------|
T |-o--------------|-o--------------|-o--------------|----------------|
F |----o---o---o---|o---o---o---o---|o---o---o---o---|----------------|
B |o--o--o----o----|o--o--o----o----|o--o--o----o----|o---o-o-o-o-o-o-|
  |1-+-2-+-3-+-4-+-|1-+-2-+-3-+-4-+-|1-+-2-+-3-+-4-+-|1-+-2-+-3-+-4-+-|

C2|X---X---X---X---|X---X---X---X---|X---X---X---X---|X---X---X---X---|
S |----o-------o---|----o-------o---|----o-------o---|----o-------o-oo|
B |o--o--o----o----|o--o--o----o----|o--o--o----o--o-|---o--o----o----|

C2|----X---X---X---|X---X---X---X---|X---X---X---X---|X---X---X---X---|
H |O---------------|----------------|----------------|----------------|
S |----o-------o---|----o-------o---|----o-------o---|----o-------o-oo|
B |o--o--o----o----|o--o--o----o----|o--o--o----o----|o--o----o--o----|

Verse 1
C |X---------------|----------------|----------------|----------------|
H |----X---X---X---|X---X---X---X---|X---X---X---X---|X---X---X---O---|
S |----o-------o---|----o-------o---|----o-------o---|----o-------o---|
B |o--o--o----o----|o--o--o----o----|o--o--o----o--o-|---o--o----o----|

H |X---X---X---X---|X---X---X---X---|X---X---X---X---|X---X---X---O---|
S |----o-------o---|----o-------o---|----o-------o---|----o-------o-oo|
B |o--o--o----o----|o--o--o----o----|o--o--o----o--o-|---o--o----o----|

C |X---------------|----------------|----------------|----------------|
H |----X---X---X---|X---X---X---X---|X---X---X---X---|X---X---X---O---|
S |----o-------o---|----o-------o---|----o-------o---|----o-------o--o|
B |o--o--o----o----|o--o--o----o----|o--o--o----o--o-|---o--o----o----|

C |X---------------|----------------|X---------------|----------------|
H |----X---X---X---|X---X---X---X---|----O---O---O---|O---------------|
S |----o-------o---|----o-------o---|----o-------o---|--oooo--oo------|
t |----------------|----------------|----------------|------oo--oo----|
T |----------------|----------------|----------------|------------oo--|
F |----------------|----------------|----------------|--------------oo|
B |o--o--o----o----|o--o--o----o----|o--o----o--o----|o---------------|

Chorus 1
C |X---------------|----------------|----------------|----------------|
R |----x---x---x---|x---x---x---x---|x---x---x---x---|x---x---x---x---|
S |----o-------o---|----o-------o---|----o-------o---|----o-------o---|
B |o--o--o---o---o-|o--o--o---o---o-|o--o--o---o---o-|o--o----o--o--o-|

C |X---------------|----------------|----------------|----------X-----|
R |----x---x---x---|x---x---x---x---|x---x---x---x---|x---x---x-------|
S |----o-------o---|----o-------o---|----o-------o---|----o-------oooo|
B |o--o--o---o---o-|o--o--o---o---o-|o--o--o---o---o-|o--o----o-------|

C |X---------------|----------------|----------------|-------------X--|
R |----x---x---x---|x---x---x---x---|x---x---x---x---|x---x---x-------|
S |----o-------o---|----o-------o---|----o-------o---|----o-----ooo---|
B |o--o--o---o---o-|o--o--o---o---o-|o--o--o---o---o-|o--o----o----o--|

C |------------|------------|X---------------|----------------|
C2|X--X--X--X--|X--X--X-----|----X---X---X---|X---X---X-------|
S |------o-----|------o-----|----o-------o---|----o-----oooooo|
t |------------|--------o---|----------------|----------------|
T |------------|--------o-o-|----------------|----------------|
F |------------|----------o-|----------------|----------------|
B |o-o-o---o-o-|o-o-o-------|o--o--o---o---o-|o--o----o-------|
  |1--2--3--4--|1--2--3--4--|

Guitar Solo 1
C |X---------------|----------------|----------------|----------------|
H |----O---O---O---|O---O---O---O---|O---O---O---O---|O---O---O---O---|
S |----o-------o---|----o-------o---|----o-------o---|----o-------o-oo|
B |o--o--o----o----|o--o--o----o----|o--o--o----o--o-|---o--o----o----|

C |X---------------|----------------|----------------|----------------|
H |----O---O---O---|O---O---O---O---|O---O---O---O---|O---O-----------|
S |----o-------o---|----o-------o---|----o-------o---|----o---o---o-oo|
t |----------------|----------------|----------------|---------o------|
T |----------------|----------------|----------------|----------oo----|
B |o--o--o----o----|o--o--o----o----|o--o--o----o----|o--o--o---------|

Verse 2
C |X---------------|----------------|----------------|----------------|
H |----X---X---X---|X---X---X---X---|X---X---X---X---|X---X---X---O---|
S |----o-------o---|----o-------o---|----o-------o---|----o-------o-oo|
B |o--o--o----o----|o--o--o----o----|o--o--o----o--o-|---o--o----o----|

H |X---X---X---X---|X---X---X---X---|X---X---X---X---|X---X---X---O---|
S |----o-------o---|----o-------o---|----o-------o---|----o-------o-oo|
B |o--o--o----o----|o--o--o----o----|o--o--o----o--o-|---o--o----o----|

C |X---------------|----------------|----------------|----------------|
H |----X---X---X---|X---X---X---X---|X---X---X---X---|X---X---X---O---|
S |----o-------o---|----o-------o---|----o-------o---|----o-------o-oo|
B |o--o--o----o----|o--o--o----o----|o--o--o----o--o-|---o--o----o----|

C |X---------------|----------------|X---------------|-----------------|
H |----X---X---X---|X---X---X---X---|----O---O---O---|O----------------|
S |----o-------o---|----o-------o---|----o-------o---|--oooo-------o-oo|
T |----------------|----------------|----------------|------o----------|
F |----------------|----------------|----------------|--------t--o-----|
B |o--o--o----o----|o--o--o----o----|o--o----o--o----|o--------tt------|
                                                     |1-+-2-+-3--+-4-+-|
Chorus 2
C |X---------------|----------------|----------------|----------------|
R |----x---x---x---|x---x---x---x---|x---x---x---x---|x---x---x---x---|
S |----o-------o---|----o-------o---|----o-------o---|----o-------o---|
B |o--o--o---o---o-|o--o--o---o---o-|o--o--o---o---o-|o--o----o--o--o-|

C |X---------------|----------------|----------------|----------X-----|
R |----x---x---x---|x---x---x---x---|x---x---x---x---|x---x---x-------|
S |----o-------o---|----o-------o---|----o-------o---|----o-------oooo|
B |o--o--o---o---o-|o--o--o---o---o-|o--o--o---o---o-|o--o----o-------|

C |X---------------|----------------|----------------|-------------X--|
R |----x---x---x---|x---x---x---x---|x---x---x---x---|x---x---x-------|
S |----o-------o---|----o-------o---|----o-------o---|----o-----ooo---|
B |o--o--o---o---o-|o--o--o---o---o-|o--o--o---o---o-|o--o----o----o--|

C |------------|------------|X---------------|----------------|
C2|X--X--X--X--|X--X--X-----|----X---X---X---|X---X---X-------|
S |------o-----|------o-----|----o-------o---|----o-----oooooo|
t |------------|--------o---|----------------|----------------|
T |------------|--------o-o-|----------------|----------------|
F |------------|----------o-|----------------|----------------|
B |o-o-o---o-o-|o-o-o-------|o--o--o---o---o-|o--o----o-------|
  |1--2--3--4--|1--2--3--4--|

Guitar Solo 2
R |x---x---x---x---|x---x---x---x---|x---x---x---x---|x---x---x---x---|
S |----o-------o---|----o-------o---|----o-------o---|----o-------o-oo|
B |o--o--o---o---o-|o--o--o---o---o-|o--o--o---o---o-|o--o--o---o-----|

C |X---------------|----------------|----------------|------X---X---XX|
R |----x---x---x---|x---x---x---x---|x---x---x---x---|x---------------|
S |----o-------o---|----o-------o---|----o-------o---|--oooo--oo--oo--|
B |o--o--o---o---o-|o--o--o---o---o-|o--o--o---o-----|o-----oooooooooo|

Bridge
C2|X-X-X-X-X-X-|X-X-X-X-X-X-|X---X---X---X---|X---X---X---X---|
S |------o-----|------o-----|----o-------o---|----o-------o-oo|
B |o-o-o---o-o-|o-o-o---o-o-|o--o--o---o---o-|o--o----o--o----|
  |1--2--3--4--|1--2--3--4--|

C2|X-X-X-X-X-X-|X-X-X-X-X-X-|X---X---X---X---|X---X---X---X---|
S |------o---o-|------o-----|----o-------o---|----o-------o-oo|
B |o-o-o---o---|o-o-o---o-o-|o--o--o---o---o-|o--o----o--o----|
  |1--2--3--4--|1--2--3--4--|

C2|X-X-X-X-----|X-X-X-X-X-X-|X---X---X---X---|X---X---X---X---|
S |------o-----|------o-----|----o-------o---|----o-------o-oo|
t |--------o---|------------|----------------|----------------|
T |--------o-o-|------------|----------------|----------------|
F |----------o-|------------|----------------|----------------|
B |o-o-o-------|o-o-o---o-o-|o--o--o---o---o-|o--o----o--o----|
  |1--2--3--4--|1--2--3--4--|

C2|X-X-X-X-----|X-X-X-X-X-X-|X---X---X---X---|X---X------------|
S |------o-----|------o-----|----o-------o---|----o--------o-oo|
t |--------o---|------------|----------------|-----------------|
T |--------o-o-|------------|----------------|-----------o-----|
F |----------o-|------------|----------------|--------t--------|
B |o-o-o-------|o-o-o---o-o-|o--o--o---o-----|o--o--o--tt------|
  |1--2--3--4--|1--2--3--4--|                |1-+-2-+-3--+-4-+-|

Chorus 3
C |X---------------|----------------|----------------|----------------|
R |----x---x---x---|x---x---x---x---|x---x---x---x---|x---x---x---x---|
S |----o-------o---|----o-------o---|----o-------o---|----o-------o---|
B |o--o--o---o---o-|o--o--o---o---o-|o--o--o---o---o-|o--o----o--o--o-|

C |X---------------|----------------|----------------|----------X--X--|
R |----x---x---x---|x---x---x---x---|x---x---x---x---|x---x---x-------|
S |----o-------o---|----o-------o---|----o-------o---|----o-------o---|
B |o--o--o---o---o-|o--o--o---o---o-|o--o--o---o---o-|o--o----o----o--|

C |X---------------|----------------|----------------|-------------X--|
R |----x---x---x---|x---x---x---x---|x---x---x---x---|x---x---x-------|
S |----o-------o---|----o-------o---|----o-------o---|----o-----ooo---|
B |o--o--o---o---o-|o--o--o---o---o-|o--o--o---o-----|o--o----o----o--|

C |------------|------------|X---------------|----------------|
C2|X--X--X--X--|X--X--X-----|----X---X---X---|X---X---X---X---|
S |------o-----|------o-----|----o-------o---|----o-------o-oo|
t |------------|--------o---|----------------|----------------|
T |------------|--------o-o-|----------------|----------------|
F |------------|----------o-|----------------|----------------|
B |o-o-o---o-o-|o-o-o-------|o--o--o---o---oo|o--o--o-o--o----|
  |1--2--3--4--|1--2--3--4--|

                 Slow Down
C |------------|------------|X---------------|
C2|X-X-X-X-X---|X-X-X-X-----|----------------|
S |------o---o-|------o-----|----------------|
t |------------|--------o---|----------------|
T |------------|--------o-o-|----------------|
F |------------|----------o-|----------------|
B |o-o-o---o---|o-o-o-------|o---------------|
  |1--2--3--4--|1--2--3--4--|
END
Tap to rate this tab
 
# A B C D E F G H I J K L M N O P Q R S T U V W X Y Z