Song name
# A B C D E F G H I J K L M N O P Q R S T U V W X Y Z

Alter Bridge - Find The Real tab

Help us improve GuitareTab! Take a short survey!
---------------------------------------------------------------------------
			   FIND THE REAL SOLO   - Alter Bridge
---------------------------------------------------------------------------
Tabbed by:DJ_Inferno2000
Email:DJInferno2000@gmail.com

Tuning:1/2 steps down Dropped D  D# A# F# C# G# C#

e|------------------------------------------------------------------|
B|-10----15fb-13~---------------------------------------------------|
G|-12fb-------12~-12bp10-------12-10-----------------10*b-----------|
D|-----------------------12-10--------12-10----10-12----------------|
A|------------------------------------------12----------------------|
D|------------------------------------------------------------------|

e|-------------------------------------------------------------------------|
B|-----10-13------10-13------10-13------10-13--13b15-13b15-13b15-13b15r13~-|
G|-12bf------12bf-------12bf-------12bf------------------------------------|
D|-------------------------------------------------------------------------|
A|-------------------------------------------------------------------------|
D|-------------------------------------------------------------------------|

e|-----------------10-13/15--17\--/17-16-15----------15-16b-15------------|
B|-----------10-13--------------------------18-15-18-----------18-15------|
G|-----10-12--------------------------------------------------------------|
D|--12--------------------------------------------------------------------|
A|------------------------------------------------------------------------|
D|------------------------------------------------------------------------|

e|-13-------------------------------------------------10-10-x-x---|
B|----15-13----15-13----------------------------------10-10-x-x---|
G|----------14-------14-12bf-14-12p10-12-12bf-12-10---------------|
D|--------------------------------------------------12------------|
A|----------------------------------------------------------------|
D|----------------------------------------------------------------|

e|-----101310--------101310---------101310----13~~---------|
B|-1013-------13-1013-------13-1013--------13--------------|
G|---------------------------------------------------------|
D|---------------------------------------------------------|
A|---------------------------------------------------------|
D|---------------------------------------------------------|
   ^^^^This is really fast with wah-wah


e|-101310--101310--101310---101310---101310---------------|
B|-------13------13-------13-------13------13-------------|
G|--------------------------------------------------------|
D|--------------------------------------------------------|
A|--------------------------------------------------------|
D|--------------------------------------------------------|
  ^^^^I'm not too sure bout this but this is what i do with a wah wah


e|----------------------------------------------------|
B|-17bf-17-15-12bf-12---------------------------------|
G|--------------------14-12b-10-9-10~-----------------|
D|----------------------------------------------------|
A|----------------------------------------------------|
D|----------------------------------------------------|

e|-22~-22~-22~-22-20----20~~~-------------------------|
B|-------------------22-------------------------------|
G|----------------------------------------------------|
D|----------------------------------------------------|
A|----------------------------------------------------|
D|----------------------------------------------------|
Related for Find The Real tab