Song name
# A B C D E F G H I J K L M N O P Q R S T U V W X Y Z

Alter Session - Kay May Lain Na tab

Band/Artist: Alter Session
Song: Kay May Lain Na 

Note: If you can see a question mark inside the parenthesis (...?) that is the 
words that I can’t hear it clearly. This is the acoustic version of ‘kay may lain 
na’ by Alter Session live at the studio of wild fm(april 29, 2012). 

Intro: D-A-Bm-G-;

e|---5---5-7-5-----7-5--------------------7-5-3-5-7-5------------------|
B|-7---7-------7-5-----7-5--3-5-3-5-5/7-5-------------7-5--------------|
G|---------------------------------------------------------------------|
D|---------------------------------------------------------------------|
A|---------------------------------------------------------------------|
E|---------------------------------------------------------------------|
e|---5---5-7-5-----7-5---------------------7-5--7-7-7-7-3-3-3-3--5-7-5-|
B|-7---7-------7-5-----7-5--3-5-3-5-5/7-5------------------------------|
G|---------------------------------------------------------------------|
D|---------------------------------------------------------------------|
A|---------------------------------------------------------------------|
E|---------------------------------------------------------------------|
Verse:
D        A              Bm
Naunsa ba kanang imung gugma
     G
Nalubad na
D         A                        Bm
Ikaw na ba ang hinungdan nagkabulag ta
    G
Kay ( ...? )

Refrain:
D                   A
Niadtong estudyante pa 
                 Bm
Ikaw ang gihuna-huna
                   G
Ikaw ang akong kalipay
                       A
Pero karon puno sa pagmahay

Chorus:
           D                   A
Kay may lain na... Kay may lain na
        Bm           G
Ikaw karon may lain na
            D                  A
Kay may lain na... Kay may lain na
       Bm         G
Ikaw karon hinigugma 

D-A-Bm-G-;
e|---5---5-7-5-----7-5---------------------7-5--7-7-7-7-3-3-3-3--5-7-5-|
B|-7---7-------7-5-----7-5--3-5-3-5-5/7-5------------------------------|
G|---------------------------------------------------------------------|
D|---------------------------------------------------------------------|
A|---------------------------------------------------------------------|
E|---------------------------------------------------------------------|

Verse:
D        A                  Bm
Ngano ba ikaw karon nag inusara
          G
Hubag ang mata
D         A                     Bm
Sa ato pa ikaw na sad ang nabiktima
         G
Gibulagan ka

Refrain:
D                     A
Kung diri ka pa sa ako-a
                  Bm
Pinangga kaayo tika
                     G
Tungod sa imung batasan
              A
( ...? ) gibulagan

Chorus:
           D                   A
Kay may lain na... Kay may lain na
        Bm           G
Ikaw karon may lain na
            D                  A
Kay may lain na... Kay may lain na
       Bm         G
Ikaw karon hinigugma 

Brigde:
D                  A
Pagkasakit ning gugma
               Bm
Kung binuangan ka
                 G
Maayo ra sa permiro

Loving kaayo

Outro: D-A-Bm-G-;

e|---5---5-7-5-----7-5--------------------7-5-3-5-7-5------------------|
B|-7---7-------7-5-----7-5--3-5-3-5-5/7-5-------------7-5--------------|
G|---------------------------------------------------------------------|
D|---------------------------------------------------------------------|
A|---------------------------------------------------------------------|
E|---------------------------------------------------------------------|

e|---5---5-7-5-----7-5--------------------7-5--3-3-3-5-5-5-7-7-7-5-5-5-|
B|-7---7-------7-5-----7-5--3-5-3-5-5/7-5------------------------------|
G|---------------------------------------------------------------------|
D|---------------------------------------------------------------------|
A|---------------------------------------------------------------------|
E|---------------------------------------------------------------------|

e|--------------5-5-5-7-7-7-5-5-5----------------5-5-5-7-7-7----|
B|-7-7-5--7-7-7-------------------7-7-5-5--7-7-7----------------|
G|--------------------------------------------------------------|
D|--------------------------------------------------------------|
A|--------------------------------------------------------------|
E|--------------------------------------------------------------|

e|--5-5-5----------------7-7-7-9-9-9-7-7-7-9-9-7-7-10-10-10-9-9-|
B|--------7-7-5-5--7-7-7----------------------------------------|
G|--------------------------------------------------------------|
D|--------------------------------------------------------------|
A|--------------------------------------------------------------|
E|--------------------------------------------------------------|

e|--9-7-7-7-5-5-5h7-5-------------------------------------------|
B|--------------------7-----------------------------------------|
G|--------------------------------------------------------------|
D|--------------------------------------------------------------|
A|--------------------------------------------------------------|
E|--------------------------------------------------------------|

Tap to rate this tab
# A B C D E F G H I J K L M N O P Q R S T U V W X Y Z