Guitaretab - guitar tabs
Song name
# A B C D E F G H I J K L M N O P Q R S T U V W X Y Z

Alternative Tv - Why Dont You Do Me Right tab

-----------------------------------------------------------------
Why Don't You Do Me Right? - Alternative TV (ATV)
-----------------------------------------------------------------
Tabbed by: Dillon
Email: Angelic_oioi_upstart@yahoo.com

Tuning:Standard

Intro Verse And Chorus:
e|---------------------------------------------------------------|
B|---------------------------------------------------------------|
G|-----7-8-999-7-------------------------77----------------------|
D|-777-7-8-999-7-10-(3 times)-77-1010-99-99----------------------|
A|-777-5-6-777-5-10-----------77-1010-99-77----------------------|
E|-555------------8-----------55--8-8-77-------------------------|
[ Tab from: http://www.guitaretab.com/a/alternative-tv/55431.html ]
End of Song:
e|---------------------------------------------------------------|
B|---------------------------------------------------------------|
G|---------------------------------------------------------------|
D|-7-7777-7777-777-101010----------------------------------------|
A|-7-7777-7777-777-101010----------------------------------------|
E|-5-5555-5555-555--8-8-8----------------------------------------|

| / slide up
| \ slide down
| h hammer-on
| p pull-off
| ~ vibrato
| + harmonic
| x Mute note

#----------------------------------PLEASE NOTE---------------------------------#
#This file is the author's own work and represents their interpretation of the #
#song. You may only use this file for private study, scholarship, or research. #
#------------------------------------------------------------------------------#