Song name
# A B C D E F G H I J K L M N O P Q R S T U V W X Y Z

Alternosfera - Arunc259-mi Acoustic tab

Versiune pentru 2 chitări acustice īn acordaj Standard.

INTRO 1

Chitara 1
Cm      

Chitara2
e|--------------------------------------------------------|
b|-----------------------------------------------11-10----|
g|-5--8-7-----5--8-7-3---5--8-7-----5--8-7-3---5-------3--|
D|-5------5---5----------5------5---5----------5----------|
A|--------------------------------------------------------|
E|--------------------------------------------------------|

INTRO 2

Chitara 1
Cm   Dm D#

Chitara 2
e|---------------------------------------------------------------|
b|---------------------------------------------------------------|
g|-3/5--5--5-5--5-5--5--5-5---10/12--12--12-12--12-12--12--12-12-|
D|---------------------------------------------------------------|
A|-1/3--3--3-3--3-3--3--3-3----8/10--10--10-10--10-10--10--10-10-|
E|---------------------------------------------------------------|

e|---------------------------------------------------------------|
b|---------------------------------------------------------------|
g|-7--7--7--7-7--7-7--7--7-7---7/8--8--8-8--8-8--8--8-8----------|
D|---------------------------------------------------------------|
A|-5--5--5--5-5--5-5--5--5-5---5/6--6--6-6--6-6--6--6-6----------|
E|---------------------------------------------------------------|

e|---------------------------------------------------------------|
b|---------------------------------------------------------------|
g|-3/5--5--5-5--5-5--5--5-5---10/12--12--12-12--12-12--12--12-12-|
D|---------------------------------------------------------------|
A|-1/3--3--3-3--3-3--3--3-3----8/10--10--10-10--10-10--10--10-10-|
E|---------------------------------------------------------------|

e|------------------------------------10b11r11-------------------|
b|-----------------------------9-11-9----------------------------|
g|-7--7--7--7-7--7-7--7--7-7---8---------------------------------|
D|---------------------------------------------------------------|
A|-5--5--5--5-5--5-5--5--5-5-------------------------------------|
E|---------------------------------------------------------------|

Cm             D# 
Stau lānga pat privirea-n fum
A#             G#
De-o vreme nu mai dorm să nu mă scol nebun
Cm             D# 
Ce leac să-mi iau un strigăt stins
A#             G#
Pān-la demenţă jur mi-a mai rămas un vis

INTRO 2

Cm             D# 
Să mă sufoc īn ape-adānci
A#             G#
Să obosesc de somn şi-n pieptul meu s-adun
Cm             D# 
Tot de la ce să mă trezesc
A#             G#        Cm
Complet nebun


       D#         A# 
Aruncă-mi din minte
            F             Cm
Lanţuri din mii de cuvinte
      D#      A#
Mă arde o vină
           F             A# Am D#
Că-mi pare viaţa străină
       A#               F              Cm
Frānte gānduri īmi taie capul fierbinte
       D#         A# F D#
Aruncă-mi din minte

BRIDGE 1

Chitara 1
e|--------------------------------|
b|--------------------------------|
g|----------------5----5---5------|
D|-1----1---1-----4----4---4------| X4
A|-3--3---3---3---6--6---6---6----|
E|--------------------------------|

BRIDGE 2

Chitara 1
e|--------------------------------|     e|----------------3-3-3--2-2-2------|
b|--------------------------------|     b|----------------3-3-3--2-2-2------|
g|----------------5----5---5------|     g|----------------3-3-3--3-3-3------|
D|-1----1---1-----4----4---4------| X5  D|-1----1---1-----5-5-5--4-4-4------|
A|-3--3---3---3---6--6---6---6----|     A|-3--3---3---3---5-5-5--4-4-4------|
E|--------------------------------|     E|----------------3-3-3--2-2-2------|

Chitara 2
e|---------------------------------------------------------------|
b|---------------------------------------------------------------|
g|-3/5--5--5-5--5-5--5--5-5---3/5--5--5-5--5-5--5--5-5-----------|
D|---------------------------------------------------------------|
A|-1/3--3--3-3--3-3--3--3-3---1/3--3--3-3--3-3--3--3-3-----------|
E|---------------------------------------------------------------|

e|----------------------------------------------------------------------|
b|----------------------------------------------------------------------|
g|-10/12--12--12-12--12-12--12--12-12---12\11--12\11--12\11--12\11--12--|
D|----------------------------------------------------------------------|
A|--8/10--10--10-10--10-10--10--10-10---10\-9--10\-9--10\-9--10\-9------|
E|----------------------------------------------------------------------|

e|---------------------------------------------------------------|
b|---------------------------------------------------------------|
g|-3/5--5--5-5--5-5--5--5-5---3/5--5--5-5--5-5--5--5-5-----------|
D|---------------------------------------------------------------|
A|-1/3--3--3-3--3-3--3--3-3---1/3--3--3-3--3-3--3--3-3-----------|
E|---------------------------------------------------------------|

e|---------------------------------------------------------------|
b|---------------------------------------------------------------|
g|-10/12--12--12-12--12-12--12--12-12---12--12--12--11--11--11---|
D|---------------------------------------------------------------|
A|--8/10--10--10-10--10-10--10--10-10---10--10--10---9---9---9---|
E|---------------------------------------------------------------|


C5             D5 
Ce leac să-mi iau un strigăt stins
A5             G5
Pān-la demenţă jur mi-a mai rămas un vis

Stau lānga pat privirea-n fum
           G#        Cm
Complet nebun


D#         A# 
Aruncă-mi din minte
            F             Cm
Lanţuri din mii de cuvinte
      D#      A#
Mă arde o vină
           F             A# Am D#
Că-mi pare viaţa străină
       A#               F              Cm
Frānte gānduri īmi taie capul fierbinte
       D#         A# F D#
Aruncă-mi din minte

SOLO

Chitara 1
Cm D# A# F D# x4

Chitara 2

e|-----------------------------------------------------------------------|
b|--------8----------------8----------------8----------11-11-11--9--9--9-|
g|-------------10---------------10---------------10----10-10-10-10-10-10-| X2
D|-/10~10---10-----/10~/10---10-----/10~/10---10-------------------------|
A|-----------------------------------------------------------------------|
E|-----------------------------------------------------------------------|

e|---------------------------------1-------------------------------------|
b|---3---4-3------3---4-3------1-----1------3---4-3-1--------------------|
g|-3---3-----3--3---3-----3--3---3-----3--1---1--------------------------| X2
D|-----------------------------------------------------------------------|
A|-----------------------------------------------------------------------|
E|-----------------------------------------------------------------------|

OUTRO

Chitara 1
Cm        Cm 
Aruncă-mi din minte
Cm        Cm
Lanţuri din mii de cuvinte
Cm            A#
Mă arde o vină
           F           Cm
Că-mi pare viaţa străină

Chitara2
e|--------------|
b|-------8---6--|
g|-3-3-3---3----|
D|--------------| Se repetă atīt timp cīt Chitara 1 ţine Cm.
A|--------------|
E|--------------|
Tap to rate this tab
 
# A B C D E F G H I J K L M N O P Q R S T U V W X Y Z