Song name
# A B C D E F G H I J K L M N O P Q R S T U V W X Y Z

Alucard - The Resignation Song tab

Resignation Song
By Alucard (www.myspace.com/alucardrock)

SOLO (2:18-2:50)
E|------------------|--------------|-------------------|
B|------------------|--------------|--------6/8--------|
G|--5-7-8-7b8b7b8~--|--7-5-7-------|--5-7-8-----8-10~--|
D|------------------|--------5-5~--|-------------------|
A|------------------|--------------|-------------------|
E|------------------|--------------|-------------------|

E|-----------------7~--|--///////19--|
B|---------------------|--(slide)----|
G|--10b12b10b12~-8-----|-------------|
D|---------------------|-------------|
A|---------------------|-------------|
E|---------------------|-------------|

E|----------|--------|------------6~--|--------------15----13~--|
B|----------|--9-8~--|--6---6---8-8~--|-----13-15-16----16------|
G|--5~-7-8--|--8-8~--|----8---7---7~--|--13---------------------|
D|--5~------|--------|----------------|-------------------------|
A|----------|--------|----------------|-------------------------|
E|----------|--------|----------------|-------------------------|

E|--15~--------|-----------15-19~--|
B|----16~------|--------15---------|
G|------15~----|-----16------------|
D|--------17~--|--17---------------|
A|-------------|-----(sweep-pick)--|
E|-------------|-------------------|

E|-----------------|--6---6----|----------------|
B|--4-----4--------|--8---8----|----------------|
G|--5-----5--------|--8-8-8-8--|--7-7h8p7-------|
D|--5-5-5-5-5-5-5--|-----------|----------10-8--|
A|-----------------|-----------|----------------|
E|-----------------|-----------|----------------|

E|--------3--|--------3--|--------------3-3--|
B|--------3--|--------3--|--------3-4-3-3-4--|
G|--------3--|--------3--|--------------3-3--|
D|-----------|-----------|-------------------|
A|-----------|-----------|-------------------|
E|--3-3-3----|--3-3-3----|--3-3-3------------|

E|---------------------|--6---6----|----------------|
B|------------4--------|--8---8----|----------------|
G|------------5--------|--8-8-8-8--|--7-7h8p7-------|
D|-(triplet)--5--------|-----------|----------10-8--|
A|--(3-3-3)-3---3-3-3--|-----------|----------------|
E|---------------------|-----------|----------------|

E|--------3---------|------|
B|--------3---------|--4~--|
G|--------3---------|--3~--|
D|------------------|--5~--|
A|------------------|--6~--|
E|--3-3-3---3-3-3-x-|------|
Tap to rate this tab
# A B C D E F G H I J K L M N O P Q R S T U V W X Y Z