Song name
# A B C D E F G H I J K L M N O P Q R S T U V W X Y Z

Aluto - Michi To You All tab

Michi ~To You All (Intro) by ALUTO
Naruto Shippuuden EP 2 :)
First submitting a tab so bear with me. xD Anyway this is the Intro of BOTH the TV 
SIZE and the FULL VERSION. :)
Standard Tuning; Also, the guitar should have 20 frets. You know how others have only 18.

TV SIZE
e|-17~---15~---13~----12--13--17--20~---18~---17~--|
B|-------------------------------------------------|
G|-------------------------------------------------|
D|-------------------------------------------------|
A|-------------------------------------------------|
E|-------------------------------------------------|



FULL
e|-17~---15~---13~----12--13--17--20~---18~---17~--|
B|-------------------------------------------------|
G|-------------------------------------------------|
D|-------------------------------------------------|
A|-------------------------------------------------|
E|-------------------------------------------------|

e|-8-8-10-12--13-12--13-12--13--15-15/17--15--13--12-13~--|
B|-----------------13-----13------------------------------|
G|--------------------------------------------------------|
D|--------------------------------------------------------|
A|--------------------------------------------------------|
E|--------------------------------------------------------|

e|-20~---18~--17~--|
B|-----------------|
G|-----------------|
D|-----------------|
A|-----------------|
E|-----------------|
Tap to rate this tab
 
# A B C D E F G H I J K L M N O P Q R S T U V W X Y Z