Song name
# A B C D E F G H I J K L M N O P Q R S T U V W X Y Z

Aluto - Michi To You All tab

Song: Michi ~ To You All (Naruto Shippuuden 2nd ED version)
Tabbed by: Sora (lynus4144)

paki rate na lang po.. thx!


Intro:

e|----------------------1-1-1-1-1-1-1-1--|
B|----------------------1-1-1-1-1-1-1-1--|
G|--3-3-3-3-3---5-5-5---2-2-2-2-2-2-2-2--|
D|--3-3-3-3-3---5-5-5---3-3-3-3-3-3-3-3--|  x2
A|--1-1-1-1-1---3-3-3---3-3-3-3-3-3-3-3--|
E|----------------------1-1-1-1-1-1-1-1--|


Verse:

e|----------------------1-1-1-1-1-1-1-1--|
B|----------------------1-1-1-1-1-1-1-1--|
G|--3-3-3-3-3---5-5-5---2-2-2-2-2-2-2-2--|
D|--3-3-3-3-3---5-5-5---3-3-3-3-3-3-3-3--|
A|--1-1-1-1-1---3-3-3---3-3-3-3-3-3-3-3--|
E|----------------------1-1-1-1-1-1-1-1--|
    daitai     itsumo    toori ni

e|----------------------1-1-1-1-1-1-1-1--|
B|----------------------1-1-1-1-1-1-1-1--|
G|--3-3-3-3-3---5-5-5---2-2-2-2-2-2-2-2--|
D|--3-3-3-3-3---5-5-5---3-3-3-3-3-3-3-3--|
A|--1-1-1-1-1---3-3-3---3-3-3-3-3-3-3-3--|
E|----------------------1-1-1-1-1-1-1-1--|
   sono  kaku   o       magare ba

e|--------------------------------------------|
B|--------------------------------------------|
G|--3-3-3-3-3---5-5-5---7-7-7-7-7---10-10-10--|
D|--3-3-3-3-3---5-5-5---7-7-7-7-7---10-10-10--|
A|--1-1-1-1-1---3-3-3---5-5-5-5-5---8--8--8---|
E|--------------------------------------------|
    hitonami    ni       magirekomi

e|----------------------1-1-1-1-1-1-1-1--|
B|----------------------1-1-1-1-1-1-1-1--|
G|--3-3-3-3-3---5-5-5---2-2-2-2-2-2-2-2--|
D|--3-3-3-3-3---5-5-5---3-3-3-3-3-3-3-3--|
A|--1-1-1-1-1---3-3-3---3-3-3-3-3-3-3-3--|
E|----------------------1-1-1-1-1-1-1-1--|
     toke    te      kie te iku


Refrain:

e|----------------------1-1-1-1-1----------|
B|----------------------1-1-1-1-1----------|
G|--7-7-7-7-7---3-3-3---2-2-2-2-2---5-5-5--|
D|--7-7-7-7-7---3-3-3---3-3-3-3-3---5-5-5--|
A|--5-5-5-5-5---1-1-1---3-3-3-3-3---3-3-3--|
E|----------------------1-1-1-1-1----------|
    boku  wa    michi    o nakushi

e|----------------------1-1-1-1-1----------|
B|----------------------1-1-1-1-1----------|
G|--7-7-7-7-7---3-3-3---2-2-2-2-2---5-5-5--|
D|--7-7-7-7-7---3-3-3---3-3-3-3-3---5-5-5--|
A|--5-5-5-5-5---1-1-1---3-3-3-3-3---3-3-3--|
E|----------------------1-1-1-1-1----------|
    kotoba   sura   nakushi   te shimau

e|----------------------1-1-1-1-1----------|
B|----------------------1-1-1-1-1----------|
G|--7-7-7-7-7---3-3-3---2-2-2-2-2---5-5-5--|
D|--7-7-7-7-7---3-3-3---3-3-3-3-3---5-5-5--|
A|--5-5-5-5-5---1-1-1---3-3-3-3-3---3-3-3--|
E|----------------------1-1-1-1-1----------|
    dakedo     hitotsu    dake wa

e|---------------------------------------------|
B|---------------------------------------------|
G|--3-3-3-3---5-5-5-5---7-7-7-7---10-10-10-10--|
D|--3-3-3-3---5-5-5-5---7-7-7-7---10-10-10-10--|
A|--1-1-1-1---3-3-3-3---5-5-5-5---8--8--8--8---|
E|---------------------------------------------|
    nokotte   ta         nokotte ta

e|-------------------------------|
B|-------------------------------|
G|--3-3-3-3---5-5-5-5---7-7-7-7--|
D|--3-3-3-3---5-5-5-5---7-7-7-7--|
A|--1-1-1-1---3-3-3-3---5-5-5-5--|
E|-------------------------------|
    kimi  no       koe ga


Chorus:

e|---------------------------------------------|
B|---------------------------------------------|
G|--3-3-3-3---5-5-5-5---7-7-7-7---10-10-10-10--|
D|--3-3-3-3---5-5-5-5---7-7-7-7---10-10-10-10--|
A|--1-1-1-1---3-3-3-3---5-5-5-5---8--8--8--8---|
E|---------------------------------------------|
    warau kao mo o  koru kao     mo subete

e|---------------------------------------------|
B|---------------------------------------------|
G|--3-3-3-3---5-5-5-5---7-7-7-7---10-10-10-10--|
D|--3-3-3-3---5-5-5-5---7-7-7-7---10-10-10-10--|
A|--1-1-1-1---3-3-3-3---5-5-5-5---8--8--8--8---|
E|---------------------------------------------|
    boku    o    aruka    seru

e|---------------------------------------------|
B|---------------------------------------------|
G|--3-3-3-3---5-5-5-5---7-7-7-7---10-10-10-10--|
D|--3-3-3-3---5-5-5-5---7-7-7-7---10-10-10-10--|
A|--1-1-1-1---3-3-3-3---5-5-5-5---8--8--8--8---|
E|---------------------------------------------|
    kumo ga   kire ta   saki o mi tara kitto

e|-------------------------------|
B|-------------------------------|
G|--3-3-3-3---5-5-5-5---7-7-7-7--|
D|--3-3-3-3---5-5-5-5---7-7-7-7--|
A|--1-1-1-1---3-3-3-3---5-5-5-5--|
E|-------------------------------|
    nee       wakaru    desho ?

e|----------------------1-1-1-1------|
B|----------------------1-1-1-1------|
G|--3-3-3-3---5-5-5-5---2-2-2-2---3--|
D|--3-3-3-3---5-5-5-5---3-3-3-3---3--|
A|--1-1-1-1---3-3-3-3---3-3-3-3---1--|
E|----------------------1-1-1-1------|
    nee       wakaru    desho ?
Tap to rate this tab
# A B C D E F G H I J K L M N O P Q R S T U V W X Y Z