Song name
# A B C D E F G H I J K L M N O P Q R S T U V W X Y Z

Alux Nahual - Libre Sentimiento tab

Artista: Alux Nahual
Cancion: Libre Sentimiento
Album: Leyenda 15 hits (Antologia de exitos)
Autor: Ranferi Aguilar


Afinacion: Nomrmal

Simbolos:  p = pull off
           h = hammer on
           s = slide

Nota: para quien no sabe por que hay numeros arriba de la tablatura,
significan el numero de dedo de la mano izquierda que debe presionar el
traste indicado debajo: dedo  1 = indice; dedo 2 = medio; dedo 3 = anular o
de anillos; y dedo 4 = menique o chico. El dedo 5 o pulgar por lo general no
se usa.



Intro

  3  1  1  4 3,1 3  1  1  2  3  2  4
|--0--------7-----7-----------------7--|
|-----4--5-----5-----5--4--5-----5-----|
|-----------------------------6--------|
|--------------------------------------|
|--7-----------7-----------------------|
|--------------------------------------|


      2 3,1 2 3,1 2 3,1...............
|--------4-----2-----2-----------4--2--|
|--------5-----4-----4-----------5--4--|
|-----4-----4-----4-----------4--------|
|--------------------------------------|
|--0---------------------0-0-----------|
|--------------------------------------|


   2 1  2...................  1  3  1      1  2  1     1
|---------------------------------------------------------|
|----------0-----0-----0----------------0--2--------0--2--|
|---------------------------------------------------------|
|--2p1--2-----2-----2------2--------2------------2--------|
|-----------------------------2--4------------2-----------|
|---------------------------------------------------------|


      1     1  1 4 1    2,4...
|-----------2--2h4p2p0--------|
|--------0---------------5s7--|
|-----------------------------|
|-----2-----------------------|
|--0---------------------7s9--|
|-----------------------------|


Despues del sonido de Windshine es similar a la intro
                                     ____________________
                                     |                  |
                                     V                  |
    3  1  1  4 1,3 4  1  1  2  3  2  2  2  3 4,2 3  Similar a la nota B
|--0--------7-----7-----------------2--------2-----|
|-----4--5-----5-----5--4--5-----5-----------4-----|
|-----------------------------6-----------4-----4--|
|--------------------------------------2-----------|
|--7-----------7-----------------------------------|
|--------------------------------------------------|



      2 3,1 2 3,1............................
|--------4-----2-----2--------4-----2-----2--|
|--------5-----4-----4--------5-----4-----4--|
|-----4-----4-----4--------4-----4-----4-----|
|--------------------------------------------|
|--------------------------------------------|
|--0--------------------0--------------------|


Las estrofas siguen igual que la seccion anterior:

las  can cio nes  en  la  raaaaaaaaadio                 

    3  1  1  4 1,3 4  1  1  2  3  2  2  2  3 4,2 3
|--0--------7-----7-----------------2--------2-----|
|-----4--5-----5-----5--4--5-----5-----------4-----|
|-----------------------------6-----------4-----4--|
|--------------------------------------2-----------|
|--7-----------7-----------------------------------|
|--------------------------------------------------|

pintan eeeeeel aaaaaaamoooooooooooooor

      2 3,1 2 3,1............................
|--------4-----2-----2--------4-----2-----2--|
|--------5-----4-----4--------5-----4-----4--|
|-----4-----4-----4--------4-----4-----4-----|
|--------------------------------------------|
|--------------------------------------------|
|--0--------------------0--------------------|


como un aveeeee    prii  sioneeera porque alguien

|--0--------7-----7-----------------2--------2-----|
|-----4--5-----5-----5--4--5-----5-----------4-----|
|-----------------------------6-----------4-----4--|
|--------------------------------------2-----------|
|--7-----------7-----------------------------------|
|--------------------------------------------------|

  neeeeeeecesiiiiita su caaaaanto;  si  asi 

      2 3,1 2 3,1............................
|--------4-----2-----2--------4-----2-----2--|
|--------5-----4-----4--------5-----4-----4--|
|-----4-----4-----4--------4-----4-----4-----|
|--------------------------------------------|
|--------------------------------------------|
|--0--------------------0--------------------|

   fuera            te diriia teee      aamo  por

  3   1     1  4  1     1  4   1     1  2  1  2  1
|---------------------------------------------------|
|--------0--2--------0--2---------0-----2-----2-----|
|---------------------------------------------------|
|-----2-----------2------------2-----2-----2-----2--|
|--4-----------6-----------7------------------------|
|---------------------------------------------------|

  que          te necesiitooooooooooooooo                 pero

  3   1     1  4  1     1  4   1     1  2  3  1......
|---------------------------------------4-----------4--|
|--------0--2--------0--2---------0--------5--------5--|
|---------------------------------------------4-----4--|
|-----2-----------2------------2-----2-----------------|
|--4-----------6-----------0---------------------0-----|
|------------------------------------------------------|

   yo te necesiiiiito     pooooooooorque te     aaaamooooooo

   B (si mayor)............................
|--------------2-----------------------2-----|  Se repite de nuevo
|-----------4-----4-----------------4-----4--|  la parte de las
|--------4-----------4-----------4-----------|  estrofas en este
|-----4-----------------4-----4--------------|  momento una vez 
|--2-----------------------2-----------------|  y luego se continua
|--------------------------------------------|  con todas igual


Todas las estrofas se tocan igual, asi que solamente hay que repetir las
partes de arriba con excepcion de la seccion del acorde B, donde dice "pero
yo te necesito..."


Coro: solo tiene un pequenio arpegio entre una frase y otra, lo demas son
acordes simples. Cada vez que se indica el acorde, se rasguea a velocidad
moderada con cada dedo de la mano derecha.

             E           E EEE  B B B
  Porqueeeeeeestoy enamorado de tiiiiiii

El arpegio es asi:

         1  1  2  1  3  2 1,3.......................  2
|--------5--------4--------2-----5--------4--------2-----|
|-----------5--------5-----4--------5--------5-----4-----|
|--------------6--------4--------------6--------4-----4--|
|--------------------------------------------------------|
|-----------------------------0--------------------------|
|--0--0--------------------------------------------------|

        E      E EEE        B   B   B.....arpegio
  De tu forma de ser, de tu libre sentimiento


Acordes:

  E     B
|-0-| |-2-|
|-0-| |-4-|
|-1-| |-4-|
|-2-| |-4-|
|-2-| |-2-|
|-0-| |-x-|

**********************************

Enviada por: Jose Llarena
Dudas o correcciones: elllarena@hotmail.com
Tap to rate this tab
# A B C D E F G H I J K L M N O P Q R S T U V W X Y Z