Song name
# A B C D E F G H I J K L M N O P Q R S T U V W X Y Z

Alvin Lee - Rockin Til The Sun Goes Down tab

-----------------------------------------------------------------------------
			    Alvin Lee - Rockin' Til The Sun Goes Down
-------------------------------------------------------------------------------
Tabbed by: garrett
Email: gctsk8@yahoo.com

Tuning: standard
e|-----------------------------------------------------------------------------|
B|-----------------------------------------------------------------------------|
G|-------------------3p2--0----------------------------------------------------|
D|-------0--3p2--0----------3p2--0---------------------------------------------|
A|-----2------------------------------0--1--2--5-------------------------------|
E|---3---------------------------------------------3---------------------------|
Tap to rate this tab
 
# A B C D E F G H I J K L M N O P Q R S T U V W X Y Z