Song name
# A B C D E F G H I J K L M N O P Q R S T U V W X Y Z

Alvin Youngblood Hart - Big Mamas Door tab

-------------------------------------------------------------------------------
			Big Mama's Door - Alvin Youngblood Hart
-------------------------------------------------------------------------------
Tabbed by: Andyt
Email: andrew(at)norvil(dot)net

Tuning: Open G Capo 4th



Intro:
.
D-|--0-------0----------------------|--0------------------------------|
B-|-/3------/3-------3---------3----|-/3-------3--------3-------------|
G-|--0-------0-------5-----3---5----|--0-------5---3p0--5----3--------|
D-|---------------------------------|----------------------------5~---|
G-|------0-------0-------0-------0--|------0-------0-------0-------0--|
D-|---------------------------------|---------------------------------|
.
D-|---------------------------/3----|---------------------------/3----|
B-|--------------------0------/3----|------------------------0--/3----|
G-|----------------0---0------------|------0-------0-----0---0--------|
D-|----------------0----------------|------0-------0-----0------------|
G-|------3b--0-------0-----------0--|------0---3b--0-------0-------0--|
D-|-/5----------/5------------------|-/5--------------/5--------------|
. 
D-|----------------------------0----|
B-|------------------------0--/3----|
G-|------0-------0-----0---0--------|
D-|------0-------0-----0------------|
G-|------0---3b--0-------0-------0--|
D-|-/5--------------/5--------------|
.
.
Verse:
.
D-|--3h5-----3h5-----3h5---5---3----|--3h5-----5-------3-----5---0----|
B-|--3-------3-------3---------3----|--3---------------3-----3---3----|
G-|--0-------0-------0---------0----|--0---------------0-----0---5\4--|
D-|---------------------------------|---------------------------------|
G-|------0-------0-------0-------0--|------0-------0-------0-----0----|
D-|---------------------------------|---------------------------------|
.
D-|---------------------------/3----|---------------------------/3----|
B-|--------------------0------/3----|------------------------0--/3----|
G-|----------------0---0------------|------0-------0-----0---0--------|
D-|----------------0----------------|------0-------0-----0------------|
G-|------3b--0-------0-----------0--|------0---3b--0-------0-------0--|
D-|-/5----------/5------------------|-/5--------------/5--------------|
.
D-|----------------------------0----|
B-|------------------------0--/3----|
G-|------0-------0-----0---0--------|
D-|------0-------0-----0------------|
G-|------0---3b--0-------0-------0--|
D-|-/5--------------/5--------------|
.
Ending:
.
D-|------0--------------------------|
B-|-----1---------------------------|
G-|----0----------------------------|
D-|---2-----------------------------|
G-|--3------------------------------|
D-|---------------------------------|

http://www.mojomusic.com/alvin/
Tap to rate this tab
 
# A B C D E F G H I J K L M N O P Q R S T U V W X Y Z