Always Amused - See You Around tab

Standerd Tuning

Inro Guitar 2
|------------------------------------------------------------------| 
|------------------------------------------------------------------| 
|-9----------------------------------------------------------------| 
|-9x16--7----9---7-------------------------------------------------|x6
|-7-----7x6--9---7x6-----------------------------------------------| 
|-------5----7---5-------------------------------------------------| 

Intro Lead Guitar 1
|------------------------------------------------------------------| 
|--12-9-7-5-7-9-7-5-5------5-7-9-7-5-7-5-5-------------------------| 
|------------------------------------------------------------------| 
|------------------------------------------------------------------|x4 
|------------------------------------------------------------------| 
|------------------------------------------------------------------| 

Verse Both Guitars
|------------------------------------------------------------------| 
|------------------------------------------------------------------| 
|-9----------------------------------------------------------------| 
|-9x16--7-----9-----7----------------------------------------------|x2
|-7-----7x16--9x16--7x16-------------------------------------------| 
|-------5-----7-----5----------------------------------------------| 


Intro x2
Verse x2


Chorus Both Guitars
|------------------------------------------------------------------| 
|------------------------------------------------------------------| 
|-9----------------------------------------------------------------| 
|-9x10--7-----9-----7----------------------------------------------|x2
|-7-----7x10--9x10--7x10-------------------------------------------| 
|-------5-----7-----5----------------------------------------------|


Inro  x2
Verse x2


Break (Clean)
|------------------------------------------------------------------| 
|------------------------------------------------------------------| 
|-9----------------------------------------------------------------| 
|-9x10--7-----9-----7----------------------------------------------|x2
|-7-----7x10--9x10--7x10-------------------------------------------| 
|-------5-----7-----5----------------------------------------------|


End with Intro  x2
  
Tap to rate this tab
 
# A B C D E F G H I J K L M N O P Q R S T U V W X Y Z