Song name
# A B C D E F G H I J K L M N O P Q R S T U V W X Y Z

Aly And Aj - Potential Breakup Song Acoustic tab

Aly & AJ
Potential Breakup Song (acoustic)
Submitted by: Poprockgurl
See how its played here:
http://youtube.com/watch?v=ZwAsE5QFv74

Standard Tuning
This is AJ's part but I think they both play similar parts

INTRO:
e|---2--2--2--2--2--4--5--5--5--5--5--4--2----|
B|----2--2--2--2--2------2--2--2--2--2-----2--|
G|--------------------------------------------|
D|--------------------------------------------|
A|--------------------------------------------|
E|--------------------------------------------|

e|--2--2--2--2---2-1--1--1----1-1-1-1---------|
B|---2---2--2--2----2--2--2---2-2-2-2---------|
G|--------------------------------------------|
D|--------------------------------------------|
A|--------------------------------------------|
E|--------------------------------------------|

VERSE 1:
"It took to long....come back...forget that
e|--2-----------------7------------7-------------|
B|--2-----------------7------------9-------------|
G|--2-----------------8------------9-------------|
D|--4-----------------9------------7-------------|
A|--4-----------------9------------7-------------|
E|--2-----------------7------------7-------------|
"it was my birthday" (just stum twice then hold for "stupid birthday")
e|--6------------------------------------------|
B|--8------------------------------------------|
G|--8------------------------------------------|Do all that twice for V1
D|--6------------------------------------------|
A|--6------------------------------------------|
E|--6------------------------------------------|

"who would forget that"

e|--6--3--7--6-----------------------------------|
B|--8--6--7--6-----------------------------------|
G|--8--6--7--6-----------------------------------|
D|--6--3--9--8-----------------------------------|
A|--6--3--9--8-----------------------------------|
E|--6--3--7--6-----------------------------------|

BRIDGE:
"the type of guy...dont let me go..Coz w/o me..soon you will know"
e|--2-----------------7---------------7---------6------------|
B|--2-----------------7---------------9---------8------------|
G|--2-----------------8---------------9---------8------------|
D|--4-----------------9---------------7---------6------------|
A|--4-----------------9---------------7---------6------------|
E|--2-----------------7---------------7---------6------------|

e|--6--3--7--6-----------------------------------|
B|--8--6--7--6-----------------------------------|
G|--8--6--7--6-----------------------------------|
D|--6--3--9--8-----------------------------------|
A|--6--3--9--8-----------------------------------|
E|--6--3--7--6-----------------------------------|

CHORUS:
"Your not getting...gettin to me..your not.....winnin me"
e|--2-----------------7---------------7---------6------------|
B|--2-----------------7---------------9---------8------------|
G|--2-----------------8---------------9---------8------------|repeat twice
D|--4-----------------9---------------7---------6------------|
A|--4-----------------9---------------7---------6------------|
E|--2-----------------7---------------7---------6------------|

"this is the Potential Breakup Song..."
e|---2--2--2--2--2--4--5--5--5--5--5--4--2----|
B|----2--2--2--2--2------2--2--2--2--2-----2--|
G|--------------------------------------------|
D|--------------------------------------------|
A|--------------------------------------------|
E|--------------------------------------------|

e|--2--2--2--2---2-1--1--1----1-1-1-1---------|
B|---2---2--2--2----2--2--2---2-2-2-2---------|
G|--------------------------------------------|
D|--------------------------------------------|
A|--------------------------------------------|
E|--------------------------------------------|

VERSE 2:
Repeat

CHORUS
Repeat 


BRIDGE:(this part im not sure about, it seems too simple but I cant tell what shes playing)

                                
e|-----7--5--4--5--7-5-7--7--5--4--5----------|
B|--------------------------------------------|
G|--------------------------------------------|repeat twice??
D|--------------------------------------------|
A|--------------------------------------------|
E|--------------------------------------------|

CHORUS 
Repeat (repeat "this the Potential" twice more)




END:
"Which will it be"
e|--6--3--7--6----2-------------------------------|
B|--8--6--7--6----2-------------------------------|
G|--8--6--7--6----2-------------------------------|
D|--6--3--9--8----4-------------------------------|
A|--6--3--9--8----4-------------------------------|
E|--6--3--7--6----2-------------------------------|

Enjoy! If you guys have any suggestions please comment.
PS Does anyone know any tabs for Bianca Gisselle's songs?? (myspace.com/biancagisselle)

Tap to rate this tab
# A B C D E F G H I J K L M N O P Q R S T U V W X Y Z