Song name
# A B C D E F G H I J K L M N O P Q R S T U V W X Y Z

Aly And Aj - Rocking Around Chirstmas Tree tab

Aly And Aj
Rocking Around Chirstmas Tree
Acoustic Nights Of Winter
2006 Hollywood Records
Submitted by: paramore_fans@yahoo.com

Key: A

Tuning: Standard EADGBe

Chords used:
A -    577655 or x02220
A6 -   x04220 or x02222
E -    022100 or x799xx
E7 -   020100 or 022130
D -    xx0232
C#m -  x46654
F#m -  244222 or x-9-11-11-x-x-|
C#/F - 143xxx or x-8-11-10-x-x-|
B/Eb - x698xx
B -    x24442
Bm -   x24432
E/G# - 476xxx


Intro: A---E


Guitar 2:
e|-5-5-5-5-5-5-5-5-5--9------7-------|
B|-5-5-5-5-5-5-5-5-5-10-10-8--10-----|
G|-------------------------------7-6-|
D|-----------------------------------|
A|-----------------------------------|
E|-----------------------------------|

  very fast
e|-------5-|----------0-------------|
B|-----5---|-7---7-5----0---0---0---|
G|---6-----|---6----------2---2---2-|
D|-7-------|------------------------|
A|---------|------------------------|
E|---------|------------------------|


Verse 1:
A        A6        A         A6
Rocking around the Christmas Tree
       E7        E     E7 E
at the Christmas party hop
E7        E          E7      E
Mistletoe hung where you can see
      E7     E         A
Every couple tries to stop


Verse 2:
A        A6        A         A6
Rocking around the Christmas Tree
        E7         E     E7  E
Let the Christmas Spirit ring
E7          E         E7      E
Later we'll have some pumpkin pie
          E7      E   A
and we'll do some caroling


Chorus:
D                          C#m
You will get a sentimental feeling
              F#m    C#/F
when you hear voices singing
E        B/Eb  B(hold)
Let's be jolly Deck the
           E      D  C#m Bm
halls with boughs of hol-ly


Verse 3:
A        A6        A         A6
Rocking around the Christmas Tree
E7           E   E7 E
Have a happy holiday
E7         E       E7   E
Everyone's dancing merrily
     E7      E         A
In a new old fashioned way


Guitar Solo: Use Verse chords
e|-------9------7----------12--9-----|
B|----------10------10--10--------10-|
G|-6--------------9------------------|
D|---7-------------------------------|
A|-----7-----------------------------|
E|-----------------------------------|

Very fast
e|---------------------------------------------------|
B|-12---------------------9---10----8----------------|
G|----11-10-9----------------------------------------|
D|------------11-10-9--------------------------------|
A|--------------------11----9------------11-10-9-8-7-|
E|-------------------------------10---12-------------|

e|---------------------7-----12------------|
B|-------------------9----14-----14--------|
G|--------------6-9------------------11--9-|
D|--------6-9------------------------------|
A|-----7-----------------------------------|
E|-0h7-------------------------------------|

Very fast again
e|-----------------------------------|
B|-10-----8-----------------0--------|
G|----9-6---7-6--------------------2-|
D|--------------9-7-6----------2h4---|
A|--------------------9-7------------|
E|------------------------10---------|


(Repeat Chorus)


Verse 4:
A        A6        A         A6
Rocking around the Christmas Tree
E7           E   E7 E
Have a happy holiday
E7         E       E7   E
Everyone's dancing merrily
        E(hold)   C#/F(hold)
In a new       old
  F#m(hold)     E/G#(hold)
fash-------ioned
A
way
                F#m
rocking rocking round a rocking rocking
D                         E         A
  rocking rocking round a christmas tree
                F#m
rocking rocking round a rocking rocking
D                         E         A(hold)
  rocking rocking round a christmas tree
Tap to rate this tab
# A B C D E F G H I J K L M N O P Q R S T U V W X Y Z