Guitaretab - guitar tabs
Song name
# A B C D E F G H I J K L M N O P Q R S T U V W X Y Z

Aly And Aj - Into The Rush tab

Highlighted       Show chord diagrams
Aly And Aj
Into The Rush(Deluxe Edition)
2005
Submitted by: paramore_fans@yahoo.com


Tracklist:
01. Chemicals React
02. Shine
03. Never Far Behind
04. Something More
05. Collapsed
06. Rush
07. No One
08. On The Ride
09. In A Second
10. Speak For Myself
11. Out Of The Blue
12. I Am One Of Them
13. Sticks And Stones
14. Protecting Me
15. Slow Down
16. Do You Believe In Magic?(To be tabbed soon)
17. Walking On Sunshine

________________________________________________

1. Chemicals React


Tuning: Drop D on both Aly and Aj's guitars

Intro & Verse 1:

Aly:
e|-----2-------2-------2-------2-------2-------2-------2-------2---|
B|---0---0---0---0---0---0---0---0---0---0---0---0---0---0---0---0-|
G|---------------------------------1-------1-----------------------|
D|-2-------2---------------------------------------4-------4-------| (x2)
A|-----------------2-------2---------------------------------------|
D|-----------------------------------------------------------------|

Aly:
e|-----2-------2-------2-------2-------2-------2---4--|
B|---0---0---0---0---0---0---0---0---0---0---0---0-0--|
G|---------------------------------1-------1-------3--|
D|-2-------2---------------------------------------4--|
A|-----------------2-------2--------------------------|
D|----------------------------------------------------|

Aj : Idle

Chorus:

Both: Were you right Was I wrong...
e|-----------------------------------------------------------------------------------|
B|-5-5-5-5-5-5-5-5-12-12-12-12-12-12-12-12-7-7-7-7-7-7-7-7-7-7-7-7-7-7-7-7--|
G|-4-4-4-4-4-4-4-4-11-11-11-11-11-11-11-11-6-6-6-6-6-6-6-6-6-6-6-6-6-6-6-6--|
D|-2-2-2-2-2-2-2-2--9--9--9--9--9--9--9--9-4-4-4-4-4-4-4-4-4-4-4-4-4-4-4-4-----------|
A|-2-2-2-2-2-2-2-2--9--9--9--9--9--9--9--9-4-4-4-4-4-4-4-4-4-4-4-4-4-4-4-4-----------|
D|-2-2-2-2-2-2-2-2--9--9--9--9--9--9--9--9-4-4-4-4-4-4-4-4-4-4-4-4-4-4-4-4-----------|

Both: We lived and we loved...
e|-----------------------------------------------------------------|
B|-5-5-5-5-5-5-5-5-12-12-12-12-12-12-12-12-7-7-7-7-7-7-7--|
G|-4-4-4-4-4-4-4-4-11-11-11-11-11-11-11-11-6-6-6-6-6-6-6--|
D|-2-2-2-2-2-2-2-2--9--9--9--9--9--9--9--9-4-4-4-4-4-4-4-----------|
A|-2-2-2-2-2-2-2-2--9--9--9--9--9--9--9--9-4-4-4-4-4-4-4-----------|
D|-2-2-2-2-2-2-2-2--9--9--9--9--9--9--9--9-4-4-4-4-4-4-4-----------|

Aly: But the planets all aligned
e|-----------------------------------------------------------------------------|
B|-----------------------------------------------------------------------------|
G|------------------8-----------------------11\9p8h9---------------------------|
D|-------9----8h9---------9---8h9p8\6-----9----------9-------11----11----11----|
A|-11-11---11-----11------------------7-7-----------------11----11----11-------|
D|--------------------9-9---9--------------------------11-------------------11-|

Aly: And just like that...
e|--------------------------------------------------------------------------|
B|--------------------------------------------------------------------------|
G|------------------8---------------------------------------6-6-6-6-6-6-6-6-|
D|-------9----8h9---------9---8h9p8\6---9/11-11-11-11-9\4-4-x-x-x-x-x-x-x-x-|
A|-11-11---11-----11------------------7---------------------4-4-4-4-4-4-4-4-|
D|--------------------9-9---9-----------------------------------------------|

Aj:
e|-----------------------------------------------------------------------------------|
B|-----------------------------------------------------------------------------------|
G|-----------------------------------------------------------------------------------|
D|-6-6-6-6-6-6-6-6-9-9-9-9-9-9-9-9-2-2-2-2-2-2-2-2-11-11-11-11-11-11-11-11--| (x2)
A|-6-6-6-6-6-6-6-6-9-9-9-9-9-9-9-9-2-2-2-2-2-2-2-2-11-11-11-11-11-11-11-11--|
D|-6-6-6-6-6-6-6-6-9-9-9-9-9-9-9-9-2-2-2-2-2-2-2-2-11-11-11-11-11-11-11-11--|


Verse 2:

Aly: Idle

Aj: x means palm mute
e|---------------------------------------------------------------------------|
B|---------------------------------------------------------------------------|
G|---------------------------------------------------------------------------|
D|-2-x-x-2-x-x-2-x-9-x-x-9-x-x-9-x-6-x-x-6-x-x-6-x-4-x-x-4-x-x-4-x--| (x2)
A|-2-x-x-2-x-x-2-x-9-x-x-9-x-x-9-x-6-x-x-6-x-x-6-x-4-x-x-4-x-x-4-x--|
D|-2-x-x-2-x-x-2-x-9-x-x-9-x-x-9-x-6-x-x-6-x-x-6-x-4-x-x-4-x-x-4-x--|

Aly: We cannot deny...
e|-----------------2---0-----------|
B|---0-4-0-2-0---0---0---4-2-0---0-|
G|-3-----------3---------------3---|
D|---------------------------------| (x2)
A|---------------------------------|
D|---------------------------------|

Aj:
e|-------------------------------------------------------------------------------------------|
B|-------------------------------------------------------------------------------------------|
G|-------------------------------------------------------------------------------------------|
D|-6-6-6-6-6-6-6-6-9-9-9-9-9-9-9-9-11-11-11-11-11-11-11-11-11-11-11-11-11-11-11-11--|
A|-6-6-6-6-6-6-6-6-9-9-9-9-9-9-9-9-11-11-11-11-11-11-11-11-11-11-11-11-11-11-11-11--|
D|-6-6-6-6-6-6-6-6-9-9-9-9-9-9-9-9-11-11-11-11-11-11-11-11-11-11-11-11-11-11-11-11--|

(Repeat Chorus)

Bridge:

Aly: Kaleidoscope of colors
e|-7-7-7-7-7-7-7-7-7-7-7-7-7-7-7-7-6-6-6-6-6-6-6-6-6-6-6-6-6-6-6-6--|
B|-9-9-9-9-9-9-9-9-4-4-4-4-4-4-4-4-7-7-7-7-7-7-7-7-7-7-7-7-7-7-7-7--|
G|-8-8-8-8-8-8-8-8-4-4-4-4-4-4-4-4-6-6-6-6-6-6-6-6-6-6-6-6-6-6-6-6--|
D|---------------------------------------------------------------------------|
A|---------------------------------------------------------------------------|
D|---------------------------------------------------------------------------|

Aj:
e|-------------------------------------------------------------------------------------------|
B|-------------------------------------------------------------------------------------------|
G|-------------------------------------------------------------------------------------------|
D|-6-6-6-6-6-6-6-6-9-9-9-9-9-9-9-9-11-11-11-11-11-11-11-11-11-11-11-11-11-11-11-11--|
A|-6-6-6-6-6-6-6-6-9-9-9-9-9-9-9-9-11-11-11-11-11-11-11-11-11-11-11-11-11-11-11-11--|
D|-6-6-6-6-6-6-6-6-9-9-9-9-9-9-9-9-11-11-11-11-11-11-11-11-11-11-11-11-11-11-11-11--|

Aly: Don't let us lose it
e|-12~--
B|--0~--
G|------|
D|------|
A|------|
D|------|

Aj:
e|-2-----|
B|-5-----|
G|-4-----|
D|-2-----|
A|-2-----|
D|-2-----|

(Repeat Chorus but don't proceed yet to "But the planets..." instead to this one)

Chorus 2:

Both: We live, We love...
e|-----------------------------------------------------------------------------------|
B|-5-5-5-5-5-5-5-5-12-12-12-12-12-12-12-12-7-7-7-7-7-7-7-7-7-7-7-7-7-7-7-7--|
G|-4-4-4-4-4-4-4-4-11-11-11-11-11-11-11-11-6-6-6-6-6-6-6-6-6-6-6-6-6-6-6-6--|
D|-2-2-2-2-2-2-2-2--9--9--9--9--9--9--9--9-4-4-4-4-4-4-4-4-4-4-4-4-4-4-4-4-----------|
A|-2-2-2-2-2-2-2-2--9--9--9--9--9--9--9--9-4-4-4-4-4-4-4-4-4-4-4-4-4-4-4-4-----------|
D|-2-2-2-2-2-2-2-2--9--9--9--9--9--9--9--9-4-4-4-4-4-4-4-4-4-4-4-4-4-4-4-4-----------|

Both: We're live to love
e|-----------------------------------------------------------------|
B|-5-5-5-5-5-5-5-5-12-12-12-12-12-12-12-12-7-7-7-7-7-7-7--|
G|-4-4-4-4-4-4-4-4-11-11-11-11-11-11-11-11-6-6-6-6-6-6-6--|
D|-2-2-2-2-2-2-2-2--9--9--9--9--9--9--9--9-4-4-4-4-4-4-4-----------|
A|-2-2-2-2-2-2-2-2--9--9--9--9--9--9--9--9-4-4-4-4-4-4-4-----------|
D|-2-2-2-2-2-2-2-2--9--9--9--9--9--9--9--9-4-4-4-4-4-4-4-----------|

(Proceed now to "But the planets" for Aly but Aj's riff will become a bit different like these below)

Aj: And just like that... 2:28
e|---------------------------------------------------------------------------|
B|---------------------------------------------------------------------------|
G|---------------------------------------------------------------------------|
D|-6-6-6-6-6-6-6-6-9-9-9-9-9-9-9-9-6-6-6-6-6-6-6-6-9-9-9-9-9-9-9-9--|
A|-6-6-6-6-6-6-6-6-9-9-9-9-9-9-9-9-6-6-6-6-6-6-6-6-9-9-9-9-9-9-9-9--|
D|-6-6-6-6-6-6-6-6-9-9-9-9-9-9-9-9-6-6-6-6-6-6-6-6-9-9-9-9-9-9-9-9--|

Aj:
e|-----------------------------------------------------------------------------------|
B|-----------------------------------------------------------------------------------|
G|-----------------------------------------------------------------------------------|
D|-2-2-2-2-2-2-2-2-11-11-11-11-11-11-11-11-6-6-6-6-6-6-6-6-9-9-9-9-9-9-9-9--|
A|-2-2-2-2-2-2-2-2-11-11-11-11-11-11-11-11-6-6-6-6-6-6-6-6-9-9-9-9-9-9-9-9--|
D|-2-2-2-2-2-2-2-2-11-11-11-11-11-11-11-11-6-6-6-6-6-6-6-6-9-9-9-9-9-9-9-9--|

Aly: 2:43 "Like Chemicals react"
e|---------------4-----4---------6-9---14----6~--|
B|-----------------0h2---0h2-2h4-----0----12-4~--|
G|-6-6/8\6-4---4-----------------------------4~--|
D|-----------4-------------------------------6~--|
A|-----------------------------------------------|
D|-----------------------------------------------|

Aj:
e|---------------------------------------------------------------------|
B|-----------------------------------------------------------------9~--|
G|-----------------------------------------------------------------8~--|
D|-2-2-2-2-2-2-2-2-11-11-11-11-11-11-11-11-11-11-11-11-11-11-11-11-6~--|
A|-2-2-2-2-2-2-2-2-11-11-11-11-11-11-11-11-11-11-11-11-11-11-11-11-6~--|
D|-2-2-2-2-2-2-2-2-11-11-11-11-11-11-11-11-11-11-11-11-11-11-11-11-6~--|


Lyrics:

Chords used: Drop D only
E5  - 222xxx
B5  - 999xxx
G#5 - 666xxx
F#5 - 444xxx
C#5 - 11-11-11-x-x-x

Intro: E5--B5--G#5--F#5

Verse 1:
E5                 B5
  You make me feel out of my element
G#5                   F#5
  Like I'm walking on broken glass
E5                       B5
  Make my world spinning in slow motion
G#5                     B5
  And you've moving too fast


Chorus:
         E5                         B5
Were you right Was I wrong Were you weak Was I strong yeah
F#5                                    E5
Both of broken Caught in the moment We lived and we loved
       B5                     F#5      G#5          B5
And we hurt and we joked, yeah But the planets all aligned
         E5             C#5                G#5
When you looked into my eyes And just like that
    B5          E5      C#5
The chemicals react The chemicals react

(Same as Above)
You make me feel out of my element
Like I'm drifting out to the sea
Like the tides pullin' me in deeper
Makin' it harder to breathe

  G5
We cannot deny how we feel inside
B5
We cannot deny

Chorus

Bridge
G#5
Kaleidoscope of colors
G#5                      B5
Turning hopes on fire, sun is burning
G#5                    F#
Shining down on both of us
B5
Donít let us lose it

Chorus

We live, we love, we heard, we joked,
We're right, were wrong, we're weak, we're strong
We live to love

B5
But the planets all aligned
F#
When you looked into my eyes
C#
And just like that
B5
Watch the chemicals react
C#
And just like that
B5
The chemicals react
(The chemicals react)

_________________________________________________________

2. Shine


Key: C then D

Chords used:
Am -  x02210
F -   133211
C -   x32010
G -   320003
Fm -  133111
G/B - x2x003
Bm -  x24432
D -   xx0232


Intro: Am---F---


Verse 1:
Am
  When I've gone too far When I've had enough
When I'm losin' ground Feelin' out of touch
F
  I don't run and hide I just look inside
For a simple piece of mind
Am
  Like a neighborhood On a city street
I know the path It knows my feet
   F
And when I feel afraid Feel like checkin' out
You stand up and take a bow


Refrain 1:
F
  You shine when others need you
Am              C
  You speak and I believe you
F
  I know the light, it guides you
     Am                 G
I'll join the line that walks behind you


Chorus 1:
    F
You shine, you shine
       Am
Like a window to your heart I see
C
All the possibilities
    F
You shine, you shine
    Am                      C
And everyday's another opportunity
To shine


Verse 2:
Am
  The way you see the world The way it sees you back
You're the photographer You take the photograph
F
  If you don't like the way The way it looks at you
You've got all the power to choose
Am
  Turn right, turn left to the other way
Make it light, make it dark, make it go away
F
  I love the way you write the script to your own life
You're the star, you're on tonight


Refrain 2:
F
  And when I feel unnoticed
Am               C
  Just two steps back from hopeless
F                                 Am
  You turn my world around with a single smile
                           G
That's who you are, that's who you are


Chorus 2:
    F
You shine, you shine
       Am
Like a window to your heart I see
C
All the possibilities
    F
You shine, you shine
    F                       Fm
And everyday's another opportunity
   Am-G/B-C-F
To shine
   Am-G/B-C-F
To shine


Bridge:
  Am       G/B        C          F
I know the light, the light that guides you
     Am       G/B       C       F
I'll join the line that walks behind you


Chorus 3: Modulate from F to G(key C to D)
    G          Bm
You shine, you shine
      D               G
In my life I know you shine
You shine
       Bm
Like a window to your heart I see
D
All the possibilities
    G
You shine
    G(hold)
And everyday's another opportunity
   D(hold)
To shine

__________________________________________________

3. Never Far Behind


Tunning: Standard EADGBe

* means harmonics


Intro:

Aly: Idle

Aj:
e|-----------0-|-----------0-------|---------0--|
B|-------0-----|-------4-0---4-2-0-|-----4------|
G|-----2---2---|-----6-------------|---4---4----|
D|---2---------|---6---------------|-2----------|
A|-0-----------|-4-----------------|------------|
E|-------------|-------------------|------------|
       x2

Piano:
e|----7--------|-9------|------7-|
B|-------------|----9---|-7------|
G|-------------|--------|--------|
D|-------------|--------|--------|
A|-------------|--------|--------|
E|-------------|--------|--------|


Verse 1:

Aly: will enter at 0:23
e|-----12*---------11---------12*---------11---------12*-----11------|
B|-12*-----12*-12*----12*-12*-----12*-12*----12*-12*-----12*-----12*-|
G|-------------------------------------------------------------------|
D|-------------------------------------------------------------------| (x4)
A|-------------------------------------------------------------------|
E|-------------------------------------------------------------------|

Aj: strum slighter
e|-0-----|--4---|-0---|
B|-0-----|--5---|-0---|
G|-2-----|--6---|-1---|
D|-2-----|--6---|-2---| (x2)
A|-0-----|--4---|-2---|
E|-------|------|-0---|

Piano:
e|----7--------|-9------|--------|
B|-------------|----9---|-10---9-|
G|-------------|--------|--------|
D|-------------|--------|--------|
A|-------------|--------|--------|
E|-------------|--------|--------|
then
e|----7--------|-9------|-17---16---14-|
B|-------------|----9---|--------------|
G|-------------|--------|--------------|
D|-------------|--------|--------------|
A|-------------|--------|--------------|
E|-------------|--------|--------------|


Refrain:

Aly:
e|-------------------------------------------|
B|-------------------------------------------|
G|-7-7-7-7-7-7-7-7-7-7-7-7-7-7-7-7--|
D|-7-7-7-7-7-7-7-7-7-7-7-7-7-7-7-7--|
A|-5-5-5-5-5-5-5-5-5-5-5-5-5-5-5-5--|
E|-------------------------------------------|

Aj:
e|-------------------------------------------|
B|-3-3-3-3-3-3-3-3-3-3-3-3-3-3-3-3--|
G|-2-2-2-2-2-2-2-2-2-2-2-2-2-2-2-2--|
D|-0-0-0-0-0-0-0-0-0-0-0-0-0-0-0-0--|
A|-------------------------------------------|
E|-------------------------------------------|

Piano:
e|-12--12-------------12--12-|
B|-10--10--------7----10--10-|
G|--9---9--9p8p7-------9---9-|
D|---------------------------|
A|---------------------------|
E|---------------------------|


Chorus:

Aly:
e|-------------------------|-----------------|-------------5*-|
B|-------------------------|-----------------|-10\9---7/9-----|
G|-11-11-11-11-11-11-11-11-|-9-9-9-9-9-9-9-9-|----------------|
D|-11-11-11-11-11-11-11-11-|-7-7-7-7-7-7-7-7-|----------------|
A|--9--9--9--9--9--9--9--9-|-7-7-7-7-7-7-7-7-|----------------|
E|-------------------------|-----------------|----------------|
then
e|-------------------------|-----------------|----------------|
B|-------------------------|-----------------|-5*--5*--5*-----|
G|-11-11-11-11-11-11-11-11-|-9-9-9-9-9-9-9-9-|-------------4--|
D|-11-11-11-11-11-11-11-11-|-7-7-7-7-7-7-7-7-|-------------4--|
A|--9--9--9--9--9--9--9--9-|-7-7-7-7-7-7-7-7-|-------------2--|
E|-------------------------|-----------------|----------------|
then
e|-----------------|------------|
B|-----------------|------------|
G|-6-6-6-6-6-6-6-6-|-9--9--9--9-|
D|-x-x-x-x-x-x-x-x-|-x--x--x--x-|
A|-4-4-4-4-4-4-4-4-|-7--7--7--7-|
E|-----------------|------------|

Aj:
e|-----------------|-----------------|------------------------|
B|-----------------|-----------------|------------------------|
G|-----------------|-----------------|------------------------|
D|-4-4-4-4-4-4-4-4-|-7-7-7-7-7-7-7-7-|-------------------9*---|
A|-4-4-4-4-4-4-4-4-|-7-7-7-7-7-7-7-7-|-7/9h11--9h11--7/9------|
E|-2-2-2-2-2-2-2-2-|-5-5-5-5-5-5-5-5-|-0/0-----0-----0/0------|
then
e|-----------------|-----------------|------------------------|
B|-----------------|-----------------|------------------------|
G|-----------------|-----------------|------------------------|
D|-4-4-4-4-4-4-4-4-|-7-7-7-7-7-7-7-7-|---------------9-9-9-9--|
A|-4-4-4-4-4-4-4-4-|-7-7-7-7-7-7-7-7-|-7/9h11--9h11--9-9-9-9--|
E|-2-2-2-2-2-2-2-2-|-5-5-5-5-5-5-5-5-|-0/0-----0-----7-7-7-7--|
then
e|-----------------|-------------|
B|-----------------|-0--0--0--0--|
G|-----------------|-2--2--2--2--|
D|-4-4-4-4-4-4-4-4-|-2--2--2--2--|
A|-4-4-4-4-4-4-4-4-|-0--0--0--0--|
E|-2-2-2-2-2-2-2-2-|-------------|

Piano:
e|-----12*---------11---------12*---------11---------12*-----11------|
B|-12*-----12*-12*----12*-12*-----12*-12*----12*-12*-----12*-----12*-|
G|-------------------------------------------------------------------|
D|-------------------------------------------------------------------| (x8)
A|-------------------------------------------------------------------|
E|-------------------------------------------------------------------|


Post Chorus:

Aly: at cool riff 1:08
e|---------------------------------------|---------------------------------------|
B|---------------------------------------|---------------------------------------|
G|---------------------------------------|---------------------------------------|
D|-14-14-14-13--14-14-14-13--14-13-11----|-11-11-11-----11-11-11-----14-13-11----|
A|------------------------------------14-|------------------------------------14-|
E|---------------------------------------|----------12-----------12--------------|
                    x2
then
e|---------------------------|
B|-----------------------12--|
G|-13-13-13-11--13----13-----|
D|-----------------14--------|
A|---------------------------|
E|---------------------------|

Aj: 1:08
e|------------------------4---4----------------|----------------------|
B|-0---0---0---0---0--0---5---5----------------|-0---0---0---0---0--0-|
G|-2---2---2---2---2--2---6---6---1---1---1--1-|-2---2---2---2---2--2-|
D|-2---2---2---2---2--2---6---6---2---2---2--2-|-2---2---2---2---2--2-|
A|-0---0---0---0---0--0---4---4---2---2---2--2-|-0---0---0---0---0--0-|
E|--------------------------------0---0---0--0-|----------------------|
then
e|---------------------|
B|---------------------|
G|-6---6---9---9---9-9-|
D|-6---6---9---9---9-9-|
A|-4---4---7---7---7-7-|
E|---------------------|

Piano: Idle


Verse 2:

Aly:
e|-------------------------|------------------------5*----|
B|-7--0-7--0-5--0-5--0-5-0-|-0-9--0-9--0-7-----0-5-----5*-|
G|-------------------------|------------------------------|
D|-------------------------|------------------------------|
A|-------------------------|------------------------------|
E|-------------------------|------------------------------|
             x2
then
e|--------------------|---------------5*-4*----|
B|-0-9--0-9--0-7--0-5-|---------------------5*-|
G|--------------------|------------------------|
D|--------------------|---6----9---------------|
A|--------------------|-4----7---12------------|
E|--------------------|------------------------|
            x3

Aj: strum slighter
e|-0-----|--4---|-0---|
B|-0-----|--5---|-0---|
G|-2-----|--6---|-1---|
D|-2-----|--6---|-2---| (x2)
A|-0-----|--4---|-2---|
E|-------|------|-0---|

Piano:
e|----7--------|-9------|------------|
B|-------------|----9---|-7---10---9-|
G|-------------|--------|------------|
D|-------------|--------|------------|
A|-------------|--------|------------|
E|-------------|--------|------------|
then
e|----7--------|-9------|-------------|
B|-------------|----9---|-10---9---7--|
G|-------------|--------|-------------|
D|-------------|--------|-------------|
A|-------------|--------|-------------|
E|-------------|--------|-------------|

(Refrain and Chorus 1 except Post Chorus)


Bridge: Na na na na...

Aly:
e|-----------------|-----------------|-----------------|-----------------|
B|-----------------|-----------------|-----------------|-----------------|
G|-6-6-6-6-6-6-6-6-|-9-9-9-9-9-9-9-9-|-6-6-6-6-6-6-6-6-|-----------------|
D|-x-x-x-x-x-x-x-x-|-x-x-x-x-x-x-x-x-|-x-x-x-x-x-x-x-x-|-2-2-2-2-2-2-2-2-|
A|-4-4-4-4-4-4-4-4-|-7-7-7-7-7-7-7-7-|-4-4-4-4-4-4-4-4-|-2-2-2-2-2-2-2-2-|
E|-----------------|-----------------|-----------------|-0-0-0-0-0-0-0-0-|
then
e|-------------------------------------------|
B|-------------------------------------------|
G|-7-7-7-7-7-7-7-7-7-7-7-7-7-7-7-7--|
D|-7-7-7-7-7-7-7-7-7-7-7-7-7-7-7-7--|
A|-5-5-5-5-5-5-5-5-5-5-5-5-5-5-5-5--|
E|-------------------------------------------|

Aj:
e|-2-2-2-2-2-2-2-2-|-----------------|-4-4-4-4-4-4-4-4-|-12\11----------|
B|-2-2-2-2-2-2-2-2-|-0-0-0-0-0-0-0-0-|-5-5-5-5-5-5-5-5-|-------12/14----|
G|-2-2-2-2-2-2-2-2-|-2-2-2-2-2-2-2-2-|-6-6-6-6-6-6-6-6-|-------------13-|
D|-4-4-4-4-4-4-4-4-|-2-2-2-2-2-2-2-2-|-6-6-6-6-6-6-6-6-|----------------|
A|-4-4-4-4-4-4-4-4-|-0-0-0-0-0-0-0-0-|-4-4-4-4-4-4-4-4-|----------------|
E|-2-2-2-2-2-2-2-2-|-----------------|-----------------|----------------|
then
e|-------------------------------------------|
B|-3-3-3-3-3-3-3-3-3-3-3-3-3-3-3-3--|
G|-2-2-2-2-2-2-2-2-2-2-2-2-2-2-2-2--|
D|-0-0-0-0-0-0-0-0-0-0-0-0-0-0-0-0--|
A|-------------------------------------------|
E|-------------------------------------------|

Piano:
e|-14--------|-14--------|-14-12----|
B|------9-10-|------10-9-|-------12-|
G|-----------|-----------|----------|
D|-----------|-----------|----------|
A|-----------|-----------|----------|
E|-----------|-----------|----------|
      x2


Chorus 2:

Aly: 2:35
e|-5*-------4*-------5*-------4*-------5*----4*----|
B|----5*-5*----5*-5*----5*-5*----5*-5*----5*----5*-|
G|-------------------------------------------------|
D|-------------------------------------------------|
A|-------------------------------------------------|
E|-------------------------------------------------|

Aj: Let Ring
e|-----|-0-----|-0-----|----|
B|-2---|-0-0---|-0-0---|-4--|
G|-2---|-2---1-|-1---1-|-4--|
D|-4---|-2-----|-2-----|-4--|
A|-----|-0-----|-2-----|----|
E|-----|-------|-0-----|----|

Piano:
e|-9---|-------|-7-----|----|
B|-----|-7*----|-------|-7--|
G|-----|-------|-------|----|
D|-----|-------|-------|----|
A|-----|-------|-------|----|
E|-----|-------|-------|----|

(Then Repeat the rest of the Chorus 1 until pre-chorus)


Lyrics:

Chords used:
A9 -  x02200
E -   022100
C#m - x46654
D -   xx0232
F#m - 244222
B -   x24442


          A9
I know this really isn't you I know your heart is somewhere else
              C#m                      e
And I'll do anything I can To help you break out of the spell
          A9
I see you follow in the crowd I know you're trying to fit in
              C#m                     e
But if you're gonna find yourself You gotta start from deep, deep within


REfrain:
D
Hold on to what you believe


Chorus:
F#m                   A9                          e
I will always be your friend I know who you are inside
                                       F#m
I am with you 'til the end Never Far Behind
                        A9                      e
I am standing in the distance You can take your time
                   B                   F#m
And I will be here waiting Never Far Behind
    A9
Yeah Never Far Behind


Post Chorus: A9----C#m-E-A9----C#m-E


Verse 2:
       A9
I am sending you a message Don't ever think that it's too late
         C#m                         e
When you care about someone there is always room for change
       A9
Your allowed to make mistakes Its apart of every life
        C#m                                e
I don't see you any different The truth is shining in your eyes


(Repeat Refrain and Chorus)


Bridge:
F#m                  A9
Na na na na na na na na na na na na na na na na
                   C#m
(You can take your time) na na na na na na na na
e                              D
Na na Na na na na na na (And i know with all my heart)


Chorus 2:
F#m                   A9                          e
I will always be your friend I know who you are inside
                       B
I am with you 'till the end never far behind
F#m                     A9                      e
I am standing in the distance You can take your time
                   B                     F#m
And I will be here waiting Waiting by my side
   A9
God is never far behind


(Repeat Post chorus)


Outro:
     A9
I am sending you a message

___________________________________________________________

4. Something More


Capo 2

Verse 1/Riff:

--------0-----------0---------------------------0-----------------------|
------3-----------3------------3-------------3-----3--------------------|
----2-----------------------0-------------2-----------------------------|
--0------------2----------0-------------0-------------------------------|
-------------3----------------------------------------------------------|
------------------------3-----------------------------------------------|


Chorus:
-----------------------------------------------------|
-----------------------------------------------------|
-----------5-----------------------------------------|    listen to song for rhythm
--7--------5---------5-------------------------------|
--7--------3---------5-------------------------------|
--5------------------3-------------------------------|


Verse 2:
---0---------3---------3----------0---------------------------|
---3---------3---------3----------3---------------------------|
---2---------0---------0----------2---------------------------|
---0---------2---------0----------0---------------------------|
-------------3---------x--------------------------------------|
-----------------------3--------------------------------------|


Bridge:
-------------------------------------------|
-------------------------------------------|
-------5---------7-------------------------|(x2)
---2---5----5----7-------------------------|
---2---3----5----5-------------------------|
---0--------3------------------------------|

Capo 1


D    C     G               D
I didn't know what was in store.

D    C          G             D
When I walked right through the door.

 D      C        G     D
Then I saw you over there.

D          C          G      D
Our blue eyes locked in a stare.

D          C       G          D
     I didn't know quite what to say.

D          C       G          D
      Sometimes words get in the way.

Am        C           G              G
And I remember the night you said let's go for

Am         C        G
A ride I didn't want the night to end.

Am            C          G
Would we be more than friends?

Am
Yet little did I know before

C (let C ring out)
We would be something more.

D C G D , D C G D

D         C          G         D
In black and white I read the screen.

D           C       G     D
All your lines and in-between.

D            C      G      D
Then your message on the phone

D            C         G        D
I saved to hear when I'm all alone.

D        C         G            D
       And now I know just what to say.

D      C              G         D
       This doesn't happen everyday.

Am         C         G            G
And I remember the night you said let's go for

Am         C      G
A ride I didn't want the night to end.

Am            C         G
Would we be more than friends?

Am
Yet little did I know before

C (let C ring out)
We would be something more.

D C G D
Something more, something more

D C G D
We would be something more


Something more, something more


Em    C
I know we're both young

G       D
But we know how we feel. (know how we feel)

Em    C                 G
We know what is false

D
And we know what is real. (know what is real)


Am     C           G (let it ring out)
I remember the night you said let's go for

Am      C          G
A ride I didn't want the night to end.

Am       C           G         G
And I remember the night you said let's go for

Am         C      G
A ride I didn't want the end

Am            C       G
Would we be more than friends?

Am                           G  C  A7
Yet little did I know before

Am                           G  C  A7
Yet little did I know before

Am                      G
Yet little did I know before

C
We would be something more


D C G D
Something more, something more  na na na na na na na na yeah

D C G D
Something more, something more  na na na na na na na na yeah

_________________________________________________

5. Collapsed


Tuning: Drop D on both Aly and Aj's Guitar, Guitar 3

Intro:

Aly: Idle

Aj:
e|------------------------------|
B|------------------------------|
G|------------------------------|
D|-6-6--6\2-2--2/4-4--4-9-9-8-8-|
A|-6-6--6\2-2--2/4-4--4-9-9-9-9-|
D|-6-6--6\2-2--2/4-4--4-9-9-8-8-|

Guitar 3:
e|---------------------2-----------|
B|-2-0-2-0-2-0-2-0-2-0---0-4-0---0-|
G|-----------------------------3---|
D|---------------------------------|
A|---------------------------------|
D|---------------------------------|


Verses: Volume loudens

Aly:
e|-------------------------------------|
B|-------------------------------------|
G|-------------------------------------|
D|----9------9------11----9---8--------|
A|-11----6-7----7-9-----9---------  ---|
D|--------------------------------  ---|
                                     |-(x2)
e|--------------------------------  ---|
B|--------------------------------  ---|
G|-------------------------------------|
D|----13------9------11----9---8-------|
A|-11-----6-7----7-9-----9-------------|
D|-------------------------------------|

Aj: Palm mute here
e|------------------------------|
B|------------------------------|
G|------------------------------|
D|-6-6--6\2-2--2/4-4--4-9-9-8-8-| (x4)
A|-6-6--6\2-2--2/4-4--4-9-9-9-9-|
D|-6-6--6\2-2--2/4-4--4-9-9-8-8-|

Guitar 3: at 0:24
e|---------------------2-----------|
B|-2-0-2-0-2-0-2-0-2-0---0-4-0---0-|
G|-----------------------------3---|
D|---------------------------------|
A|---------------------------------|
D|---------------------------------|


Refrain:

Aly: x means palm mute
e|-------------------------------------------|
B|-------------------------------------------|
G|-4-----4-----4-----4-----4---4-------------|
D|-x-----x-----x-----x-----x---x-------------| (x3)
A|-2-x-x-2-x-x-2-x-x-2-x-x-2-x-2-x--|
D|-------------------------------------------|

Aj: still palm mute
e|-------------------------------------------|
B|-------------------------------------------|
G|-------------------------------------------|
D|-6-6-6-6-2-2-2-2-4-4-4-4-9-9-8-8--| (x3)
A|-6-6-6-6-2-2-2-2-4-4-4-4-9-9-9-9--|
D|-6-6-6-6-2-2-2-2-4-4-4-4-9-9-8-8--|

Guitar 3:
e|---------------------2-----------|
B|-2-0-2-0-2-0-2-0-2-0---0-4-0---0-|
G|-----------------------------3---|
D|---------------------------------|
A|---------------------------------|
D|---------------------------------|

Aly: From right to wrong
e|----7~---14-12\11-----|
B|----7~------------12--|
G|----6~----------------|
D|----7~----------------|
A|----------------------|
D|----------------------|

Aj:
e|-------------------------------------------|
B|-------------------------------------------|
G|-------------------------------------------|
D|-7-7-7-7-7-7-7-7-2-2-2-2-2-2-2-2--|
A|-7-7-7-7-7-7-7-7-2-2-2-2-2-2-2-2--|
D|-7-7-7-7-7-7-7-7-2-2-2-2-2-2-2-2--|

Guitar 3:
e|--12-11-----12-11-----7h9p7h9p7h9p7h9\2--|
B|--------12--------12------------------0--|
G|-----------------------------------------|
D|-----------------------------------------|
A|-----------------------------------------|
D|-----------------------------------------|


Chorus: Guitar 3 is idle here

Aly: If I... knew that you were mine
e|-------------------------14-12-11-------|
B|----------------------13----------12----|
G|-8-8-8-8-9-9-9-9---11----------------11-|
D|-9-9-9-9-9-9-9-9-9----------------------|
A|-6-6-6-6-7-7-7-7------------------------|
D|----------------------------------------|

Aj: Distortion starts
e|-------------------------------------------|
B|-------------------------------------------|
G|-------------------------------------------|
D|-1-1-1-1-2-2-2-2-9-9-9-9-4-4-4-4--|
A|-2-2-2-2-2-2-2-2-9-9-9-9-4-4-4-4--|
D|-1-1-1-1-2-2-2-2-9-9-9-9-4-4-4-4--|

Aly: If I... wouldn't have wasted time (* means harmonics)
e|--------------------------------------|
B|--------------------------------------|
G|-8-8-8-8-9-9-9-9------11-9-8----------|
D|-9-9-9-9-9-9-9-9----9--------11---9*--|
A|-6-6-6-6-7-7-7-7-11-------------9-----|
D|--------------------------------------|

Aj:
e|-------------------------------------------|
B|-------------------------------------------|
G|-------------------------------------------|
D|-1-1-1-1-2-2-2-2-6-6-6-6-4-4-4-4--|
A|-2-2-2-2-2-2-2-2-6-6-6-6-4-4-4-4--|
D|-1-1-1-1-2-2-2-2-6-6-6-6-4-4-4-4--|

Aly: I wish I could erase the past
e|----------------------------12-11----------|
B|------12--------------------------12----12-|
G|---11----11-----9--------11----------11----|
D|-9------------9---9----9-------------------|
A|-9----------7-------11---------------------|
D|-9-----------------------------------------|

Aj;
e|-------------------------------------------|
B|-------------------------------------------|
G|-------------------------------------------|
D|-9-9-9-9-2-2-2-2-9-9-9-9-4-4-4-4--|
A|-9-9-9-9-2-2-2-2-9-9-9-9-4-4-4-4--|
e|-9-9-9-9-2-2-2-2-9-9-9-9-4-4-4-4--|

Aly:
e|---------------------|
B|---------------------|
G|-8-8-8-8-9-9-9-9-13--|
D|-9-9-9-9-9-9-9-9-13--|
A|-6-6-6-6-7-7-7-7-11--|
D|---------------------|

Aj:
e|-----------------------------|
B|-----------------------------|
G|-----------------------------|
D|-1-1-1-1-2-2-2-2-6--|
A|-2-2-2-2-2-2-2-2-6--|
D|-1-1-1-1-2-2-2-2-6--|

Interlude: Same riffs as verses and x2 only

(Repeat Verses, Refrain and Chorus)

Bridge:

Aly: My mind is blank just like a clean slate...
e|----14-14-14-14-14-14--|
B|----12-12-12-12-12-12--|
G|-----9--9--9--9--9--9--|
D|-----------------------| (x4)
A|-----------------------|
D|-----------------------|

Aj:
e|---------------------------------|
B|---------------------------------|
G|---------------------------------|
D|-6-6-6--6-9-9-9--9-4-4-4-1/4-4-4-| (x3)
A|-6-6-6--6-9-9-9--9-4-4-4-1/4-4-4-|
D|-6-6-6--6-9-9-9--9-4-4-4-1/4-4-4-|

Aj: Fake
e|-------------------------|
B|-------------------------|
G|-------------------------|
D|-6-6-6-9-9-9-4--|
A|-6-6-6-9-9-9-4--|
D|-6-6-6-9-9-9-4--|

Aly: Wish I could go back:
e|-------11-------11-----------11-------11------|
B|----12-------12-----------12-------12---------|
G|-11-------11---------11---------11---------11-|
D|-------------------9----9----------------9----| (x2)
A|----------------------------------------------|
D|----------------------------------------------|

Aj:
e|-----------|
B|-----------|
G|-----------|
D|-1--2--4---| (x2)
A|-2--2--4---|
D|-1--2--4---|

Guitar 3:
e|-2--4--7---|
B|-----------|
G|-----------|
D|-----------| (x2)
A|-----------|
D|-1--2--4---|

(Repeat Chorus twice)


Lyrics:


Chords used: Drop D tuning only
G#5   -   666xxx
E5    -   222xxx
F#5   -   444xxx
B5    -   999xxx
B/Bb  -   898xxx
B/D#  -   121xxx
A5    -   777xxx

Intro: G#5-E5-F#5-B5-B/Bb (x2)

Verse 1:
G#5 E5           F#5 B5-B/Bb
    You were the one
G#5      E5         F#5 B-Bb
    That I couldnít find
G#5 E5      F#5 B-B/Bb
    Hidden away
G#5        E5           F#5  B-Bb
    In the depths of my mind


Pre Chorus:
G#5         E5                F#5            B5  B/Bb
  Why did I let you go youíre too good to be true
G#5           E5           F#5                B5 B/Bb
  I messed it up and now I donít know what to do
G#5          E5          F#5    B5  B/Bb
  We were in circles and wasted time
       A5                  E5
  from right to wrong from right to wrong


Chorus:
   B/D#-E5 B5                 F#5
If I       knew that you were mine
  B/D#-E5                G#5    F#5
I          wouldnít have wasted time
B5-E5              B5        F#5
I     wish I could erase the past
B/D#     E5     G#5    (Break)
Now itís all collapse in my lap


Interlude: G#5-E5-F#5-B5-B/Bb


Verse 2:
G#5  E5     F#5    B5-B/Bb
     I over thought
G#5       E5           F#5    B5-B/Bb
     So I locked up my heart (yeah)
G#m E5         F#5  B-Bb/B
     There you stood
G#5       E5        F#5                 B5-B/Bb
     Your blue eyes Hidden beneath your hood

(Repeat Refrain then chorus)


Bridge: Sing fast here!!!
   G#5                       B5
My mind is blank just like a clean slate
       F#5
Will I meet another guy with the same blue eyes
       G#5                 B5
and the same name with the converse shoes i gave
F#5                                                  G#5
will he have the same laugh, wear my homemade hat bet
           B5                 F#5                     G#5-B5
i'll make another mistake and think he's just another
F#5
fake.
B/D# E5 F#5
wish i  could erase the past now
B/D# E5 F#5
wish i  could bring you back

(Repeat Chorus twice)

______________________________________________________

6. Rush


Tuning: Drop D on Aly and she has a capo on 5th fret
        Drop D on Aj and no capo

Verse 1:

Aly: Cool plucking
e|-------------0---|-----------0-----|-----------2-----|---0-------------|
B|---------1-------|---------3---3---|---------5---5---|-----1---3-1-0---|
G|-----2-----2---0-|-------2-------2-|-------4-------4-|-------2---------|
D|---2---2---------|-----0-----------|-----2-----------|---------------2-| (x2)
A|-0---------------|---0-------------|---2-------------|-0---------------|
D|-----------------|-0---------------|-2---------------|-----------------|
       x4

Aj: 0:16
e|-----------------------------------|
B|-----------------------------------|
G|-----------------------------------|
D|--0~--------5~--------7~-------0~--|
A|--0~--------5~--------7~-------0~--|
D|--0~--------5~--------7~-------0~--|


Refrain: Can you feel it...

Aly:
e|-----------------|------------------|-----------------|-----------------|
B|---1---1---1---1-|---0---0---0---0--|---1---1---1---1-|---0---0---0---0-|
G|-----------------|-0---0---0---0----|-2---2---2---2---|-0---0---0---0---|
D|-2---2---2---2---|-2---2---2---2----|-2---2---2---2---|-0---0---0---0---|
A|-0---0---0---0---|-2---2---2---2----|-0---0---0---0---|-2---2---2---2---|
D|-0---0---0---0---|-2---2---2---2----|-----------------|-----------------|
then
e|-----------------|---------------|
B|-----------------|---------------|
G|---5---5---5---5-|-1-1-1-1-1-1-1-|
D|-3---3---3---3---|-2-2-2-2-2-2-2-|
A|-3---3---3---3---|-2-2-2-2-2-2-2-|
D|-----------------|-2-2-2-2-2-2-2-|

Aj: Palm mute these 4 bars only, 2 below volume loudens up to distortion
e|-----------------|-----------------|-----------------|-----------------|
B|-----------------|-----------------|-----------------|-----------------|
G|-----------------|-----------------|-----------------|-----------------|
D|-7-7-7-7-7-7-7-7-|-7-7-7-7-7-7-7-7-|-0-0-3-0-2-3-2-3-|-2-2-2-2-2-2-2-2-|
A|-5-5-5-5-5-5-5-5-|-7-7-7-7-7-7-7-7-|-0-0-0-0-0-0-0-0-|-3-3-3-3-3-3-3-3-|
D|-5-5-5-5-5-5-5-5-|-7-7-7-7-7-7-7-7-|-0-0-0-0-0-0-0-0-|-2-2-2-2-2-2-2-2-|
then
e|-----------------|---------------|
B|-----------------|---------------|
G|-----------------|-9-9-9-9-9-9-9-|
D|-3-3-3-3-3-3-3-3-|-7-7-7-7-7-7-7-|
A|-1-1-1-1-1-1-1-1-|-7-7-7-7-7-7-7-|
D|-3-3-3-3-3-3-3-3-|-7-7-7-7-7-7-7-|


Chorus:

Aly:
e|---------------3---|-------------0---|-------------3---|---------------|
B|---1-------0h1---1-|-------1-0h1---1-|-----1---0h1---1-|-----0---3---0-|
G|-------2-----------|-1---2-----------|-------0---------|-------0---0---|
D|-----2---2---------|-3-3-------------|-----------------|---------------| (x2)
A|-0-----------------|-3---------------|-3-3-------------|-2-2-----------|
D|-------------------|-3---------------|-----------------|---------------|
then * means harmonics
e|---12*---|
B|---------|
G|---------|
D|---------|
A|-0-------|
D|---------|

Aj:
e|-------------|-------------|-------------|-------------|
B|-------------|-------------|-------------|-------------|
G|-------------|-------------|-------------|-------------|
D|-0--0--0-0-0-|-8--8--8-8-8-|-3--3--3-3-3-|-2--2--2-2-2-| (x2)
A|-0--0--0-0-0-|-8--8--8-8-8-|-3--3--3-3-3-|-3--3--3-3-3-|
D|-0--0--0-0-0-|-8--8--8-8-8-|-3--3--3-3-3-|-2--2--2-2-2-|
then let ring
e|-1--
B|-3--
G|-2--
D|-0--
A|-0--
D|-0--

Verse 2:

Aly:
e|-----------------|-----------------|-----------------|-------------------------------3-|
B|-----------------|-----------------|-----------------|-------------------1-------0h1---|
G|-----------------|-----------------|-----0---0---0---|---0---0---0---0-------2---------|
D|-----------------|-----------------|-----------------|---------------------2---2-------|
A|-0-0-0-0-0-0-0-0-|-----------------|-----------------|-0---0---0---0---0---------------|
D|-----------------|-0-0-0-0-0-0-0-0-|-2-2---2---2---2-|---------------------------------|
         x4

Aj: Idle in this Verse

(Repeat Refrain And Chorus except their last parts; Disregard Aly's Harmonics and Aj's Let Ring)

Bridge:

Aly:
e|-----------------|-----------------|-----------------|-----------------|
B|-----------------|-----------------|-----------------|-----------------|
G|-2-2-2-2-2-2-2-2-|-5-5-5-5-5-5-5-5-|-----------------|-----------------|
D|-2-2-2-2-2-2-2-2-|-5-5-5-5-5-5-5-5-|-5-5-5-5-5-5-5-5-|-3-3-3-3-3-3-3-3-|
A|-0-0-0-0-0-0-0-0-|-3-3-3-3-3-3-3-3-|-5-5-5-5-5-5-5-5-|-3-3-3-3-3-3-3-3-|
D|-----------------|-----------------|-5-5-5-5-5-5-5-5-|-3-3-3-3-3-3-3-3-|
then
e|-----------------|-----------------|-------------|----|
B|-----------------|-----------------|-------------|----|
G|-2-2-2-2-2-2-2-2-|-5-5-5-5-5-5-5-5-|-------------|-2~-|
D|-2-2-2-2-2-2-2-2-|-5-5-5-5-5-5-5-5-|-5--5--5-5-5-|-3~-|
A|-0-0-0-0-0-0-0-0-|-3-3-3-3-3-3-3-3-|-5--5--5-5-5-|-3~-|
D|-----------------|-----------------|-5--5--5-5-5-|-3~-|

Aj: Palm Mute
e|-----------------|-----------------|-----------------|-----------------|
B|-----------------|-----------------|-----------------|-----------------|
G|-----------------|-----------------|-5-5-5-5-5-5-5-5-|-3-3-3-3-3-3-3-3-|
D|-0-0-0-0-0-0-0-0-|-3-3-3-3-3-3-3-3-|-5-5-5-5-5-5-5-5-|-3-3-3-3-3-3-3-3-|
A|-0-0-0-0-0-0-0-0-|-3-3-3-3-3-3-3-3-|-3-3-3-3-3-3-3-3-|-1-1-1-1-1-1-1-1-|
D|-0-0-0-0-0-0-0-0-|-3-3-3-3-3-3-3-3-|-----------------|-----------------|
then
e|-----------------|-----------------|-------------|----|
B|-----------------|-----------------|-------------|----|
G|-----------------|-----------------|-5--5--5-5-5-|-3~-|
D|-0-0-0-0-0-0-0-0-|-3-3-3-3-3-3-3-3-|-5--5--5-5-5-|-3~-|
A|-0-0-0-0-0-0-0-0-|-3-3-3-3-3-3-3-3-|-3--3--3-3-3-|-1~-|
D|-0-0-0-0-0-0-0-0-|-3-3-3-3-3-3-3-3-|-------------|----|

Aly: Plucking Solo at 1:56
e|-----0-----0-----|-3-----3-----3---|
B|-1-------1---1---|---1-----1-----1-|
G|---0---0-------0-|-----0-----0-----|
D|-----------------|-----------------|
A|-----------------|-----------------|
D|-----------------|-----------------|
         x5

Aj: Palm mute these 4 bars only, 2 below volume loudens up to distortion
e|-----------------|-----------------|-----------------|-----------------|
B|-----------------|-----------------|-----------------|-----------------|
G|-----------------|-----------------|-----------------|-----------------|
D|-7-7-7-7-7-7-7-7-|-7-7-7-7-7-7-7-7-|-0-0-3-0-2-3-2-3-|-2-2-2-2-2-2-2-2-|
A|-5-5-5-5-5-5-5-5-|-7-7-7-7-7-7-7-7-|-0-0-0-0-0-0-0-0-|-3-3-3-3-3-3-3-3-|
D|-5-5-5-5-5-5-5-5-|-7-7-7-7-7-7-7-7-|-0-0-0-0-0-0-0-0-|-2-2-2-2-2-2-2-2-|
then
e|-------------|----|
B|-------------|----|
G|-------------|-9~-|
D|-3--3--3-3-3-|-7~-|
A|-1--1--1-1-1-|-7~-|
D|-3--3--3-3-3-|-7~-|

(Repeat Chorus until fade out except their last parts)


Lyrics:

Chords used: Drop D only (We will follow Aj's chords here,)

Aj                    Aly: Capo on 5th fret
D5  - 0000xx          A5  - 777xxx
Bb5 - 888xxx          F5  - 333xxx
F5  - 333xxx          C5  - x355xx
C/E - 232xxx          G/B - x20033
G5  - 555xxx          D5  - 000xxx
A5  - 777xxx          E5  - 222xxx
D/G - 557xxx          A/D - 002x1x
Bb/F- 313xxx          F/C - 0335xx
C5  - x355xx          G5  - 555xxx

Verse 1:

D5
  Into your head, into your mind, out of your soul
                  G5                     A5            D5
race through your veins, you can't escape, you can't escape
                                                            G5
Into your life, into your dreams, out of the dark sunlight again
            A5                 D5
You can't explain, you can't explain


Refrain:
        D/G              A5     D5
Can you feel it, can you feel it
                         C/E
Rushing through your head, rushing through your head
        Bb/F         A5(Hold)
Can you feel it, can feel it


Chorus:
D5               Bb5                   F5
Don't let nobody tell you your life is over
         C/E            D5
be every color that you are
         Bb5                        F5
Into the rush now you don't have to know how
        C/E            D5
know it all before you try


Verse 2:
D5
  Putting you in, spinning around, lifting your feet
            G5                 A5                        D5
run off the ground you can't believe that it's happening now

(Repeat Refrain and Chorus)


Bridge:
D5                 F5
  It takes you to another place
C5             Bb5
  Imagine everything you can
D5                F5
  All the colors start to blend
C5                Bb5        D5(Aly is plucking here)
  Your system overloads again

A5-D5-C/E

        Bb/F    A5(hold)
Can you feel it?

(Repeat Chorus)

Chorus 2:
D5          Bb5            F C/E
  Don't let nobody tell you       (x2)

(Repeat chorus)

Outro:

Yeah yeah yeah
Yeeah yeah yeah

___________________________________________________

7. No One


TUNING: Standard (for both AJ and Aly's parts)

AJíS PART

INTRO (palm-mute on first time):
E|-0-0-0-0--0-0-0--0-0-0-0--0-0-0-|
B|-3-3-3-3--5-5-5--5-5-5-5--7-5-7-|
G|-0-0-0-0--0-0-0--0-0-0-0--0-0-0-| x4
D|-0-0-0-0--0-0-0--0-0-0-0--0-0-0-|
A|-2-2-2-2--3-3-3--5-5-5-5--5-3-5-|
E|-x-x-x-x--x-x-x--x-x-x-x--x-x-x-|

VERSE 1:
E|-0-0-0-0--0-0-0--0-0-0-0--0-0-0-|
B|-3-3-3-3--5-5-5--5-5-5-5--7-5-7-|
G|-0-0-0-0--0-0-0--0-0-0-0--0-0-0-| x4
D|-0-0-0-0--0-0-0--0-0-0-0--0-0-0-|
A|-2-2-2-2--3-3-3--5-5-5-5--5-3-5-|
E|-x-x-x-x--x-x-x--x-x-x-x--x-x-x-|

PRE-CHORUS:
E|-3-3---2-2---0-0---3-2---3-3---2-2---0-0-0-|
B|-3-3---3-3---1-1---3-3---3-3---3-3---1-1-1-|
G|-0-0---2-2---0-0---0-2---0-0---2-2---0-0-0-|
D|-0-0---0-0---2-2---0-0---0-0---0-0---2-2-2-|
A|-2-2---x-x---3-3---2-x---2-2---x-x---3-3-3-|
E|-3-3---x-x---x-x---3-x---3-3---x-x---x-x-x-|

CHORUS:
E|-0-0-0-0--0-0-0--0-0-0-0--0-0-0-|
B|-3-3-3-3--5-5-5--5-5-5-5--7-8-7-|
G|-0-0-0-0--0-0-0--0-0-0-0--0-0-0-| x4
D|-0-0-0-0--0-0-0--0-0-0-0--0-0-0-|
A|-2-2-2-2--3-3-3--5-5-5-5--5-7-5-|
E|-x-x-x-x--x-x-x--x-x-x-x--x-x-x-|

VERSE 2 (same chords as verse 1)

PRE-CHORUS

CHORUS

BRIDGE:
E|-3-3---2-2---0-0---3-2---3-3---2-2---0-0---2-|
B|-3-3---3-3---1-1---3-3---3-3---3-3---1-1---3-|
G|-0-0---2-2---0-0---0-2---0-0---2-2---0-0---2-|
D|-0-0---0-0---2-2---0-0---0-0---0-0---2-2---0-|
A|-2-2---x-x---3-3---2-x---2-2---x-x---3-3---x-|
E|-3-3---x-x---x-x---3-x---3-3---x-x---x-x---x-|

CHORUS

ENDING:
E|-0-0-0-0--0-0-0--0-0-0-0--0-0-|
B|-3-3-3-3--5-5-5--5-5-5-5--7-8-|
G|-0-0-0-0--0-0-0--0-0-0-0--0-0-|
D|-0-0-0-0--0-0-0--0-0-0-0--0-0-|
A|-2-2-2-2--3-3-3--5-5-5-5--5-7-|
E|-x-x-x-x--x-x-x--x-x-x-x--x-x-|


ALYíS PART

INTRO (palm-muted on first time):
E|-0-0-0-0--0-0-0--0-0-0-0--0-0-0-|
B|-0-0-0-0--3-3-3--5-5-5-5--3-3-3-|
G|-0-0-0-0--0-0-0--0-0-0-0--2-2-2-| x4
D|-2-2-2-2--0-0-0--0-0-0-0--0-0-0-|
A|-2-2-2-2--3-3-3--5-5-5-5--0-0-0-|
E|-x-x-x-x--x-x-x--x-x-x-x--2-2-2-|

VERSE 1:
E|-0-0-0-0--0-0-0--0-0-0-0--0-0-0-|
B|-0-0-0-0--3-3-3--5-5-5-5--3-3-3-|
G|-0-0-0-0--0-0-0--0-0-0-0--2-2-2-| x4
D|-2-2-2-2--0-0-0--0-0-0-0--0-0-0-|
A|-2-2-2-2--3-3-3--5-5-5-5--0-0-0-|
E|-x-x-x-x--x-x-x--x-x-x-x--2-2-2-|

PRE-CHORUS:
E|-7-7---10-10---8-8---7-10---7-7---10-10---8-8-8-|
B|-8-8---10-10---8-8---8-10---8-8---10-10---8-8-8-|
G|-9-9---7--7----5-5---9-7----9-9---7--7----5-5-5-|
D|------------------------------------------------|
A|------------------------------------------------|
E|------------------------------------------------|

CHORUS:
E|-0-0-0-0--0-0-0--0-0-0-0--0-0-0-|
B|-0-0-0-0--3-3-3--5-5-5-5--3-3-3-|
G|-0-0-0-0--0-0-0--0-0-0-0--2-2-2-| x4
D|-2-2-2-2--0-0-0--0-0-0-0--0-0-0-|
A|-2-2-2-2--3-3-3--5-5-5-5--0-0-0-|
E|-x-x-x-x--x-x-x--x-x-x-x--2-2-2-|

VERSE 2 (same chords as verse 1)

PRE-CHORUS

CHORUS

BRIDGE:
E|-7-7---10-10---8-8---7-10---7-7---10-10---8-8-10-|
B|-8-8---10-10---8-8---8-10---8-8---10-10---8-8-10-|
G|-9-9---7--7----5-5---9-7----9-9---7--7----5-5-7--|
D|-------------------------------------------------|
A|-------------------------------------------------|
E|-------------------------------------------------|

CHORUS

ENDING:
E|-0-0-0-0--0-0-0--0-0-0-0--0-0-|
B|-0-0-0-0--3-3-3--5-5-5-5--3-3-|
G|-0-0-0-0--0-0-0--0-0-0-0--2-2-|
D|-2-2-2-2--0-0-0--0-0-0-0--0-0-|
A|-2-2-2-2--3-3-3--5-5-5-5--0-0-|
E|-x-x-x-x--x-x-x--x-x-x-x--2-2-|

No One


Lyrics:


Chords used:
G/B -  x2x003
C9 -   x32033
D -    xx0232
Em -   022000
C -    x32010
D/F# - 2x023x


Intro: G/B-C9-D x8

Bass: / means slide up
G|-------|
D|-------|
A|-2/10--|
E|-------|


Verse 1: (again, you can use the 2nd section from above)

	   G/B                C9   D
And you're moving through the crowd
G/B                C9  D
Trying to find yourself
  G/B            C9         D
I feel like a guitar that's never played
     G/B      C9     D
Will someone strum away?


Bass: While doing verses
G|-------------------------|
D|-------5h7-7-----7--5--4-|
A|-2------------5----------| x4
E|----3--------------------|


Chorus:
      Em     D
And I ask my self
C        G       D/F#
Who do I wannabe?
     Em           G
Do I wanna throw away the key?
      C
And invent a whole new me?
And I tell myself


Post Chorus:
G/B C9 D
    No One
(Don't wanna be)
(Repeat thrice)
    G/B C9 D
But Me


Verse 2: stil ldo the bass line
       G/B                C9   D
You're moving through the crowd
G/B                C9  D
Trying to find yourself
G/B         C9        D
Feel like a doll left on a shelf
     G/B     C        D
Will someone take you down?


(Repeat Chorus and Post Chorus)


BRIDGE:
     Em                    G
Your life hangs out on the shadows of the wall
C                      G          D//F#
Turn the light out to erase it all
    Em                        D/F#
You wonder what's its like to not feel worthless
   C
So open all the blinds and tow the curtains


(Repeat Post chorus)


Outro:
            G/B                C9   D
When you're moving through the crowd

________________________________________________________

8. On The Ride


Tuning: Standard EADGBe on both Aly and Aj
/ - slide up
\ - slide down
h - hammer
p - pull off
* - harmonics
x - palm mute (located at the bottom of the bar corresponding the notes)


Intro: C#m-A9-B9-e-B/D# (x2)

Aly:
e|-----------------------0--4--2-------12*-------12*------|
B|-----------------------0--0--0------------12*-------12*-|
G|-13--13--13\11-9--2--2----------------------------------|
D|--x---x---x--x-x--2--2----------------------------------| (x2)
A|-11--11--11\-9-7--0--0----------------------------------|
E|--------------------------------------------------------|
    x               x  x

Aj:
e|----------------------------------------------|
B|----------------------2-----------------------|
G|-6---------9--2----2--2-4-----4/9--9--9--8--8-|
D|-6---------9--2----2----4-----4/9--9--9--9--9-| (x2)
A|-4--4------7--0--0------2---2-2/7--7--7--6--6-|
E|-------4/7----------------2-------------------|
   x  x         x  x      x x


Verse 1:

Aly: will enter at 0:26
e|-12*-----2--0---------2--0--------2--0--------2--0-|
B|------0-----------0------------0--------0--4-------|
G|---------------1------------2----------------------|
D|---------------------------------------------------|
A|---------------------------------------------------|
E|---------------------------------------------------|

Aj:
e|-------------------0------------0--0-----------0-|
B|-------------------0------------0--0-----------0-|
G|-------6--4--------1h2p1--------2-----------4--4-|
D|-------6-----------2------2--2--2-----4--4--4--4-| (x3)
A|-4--4--4-----2--2--2------0--0--0-----2--2--2--2-|
E|-------------0--0--0-----------------------------|
   x  x        x  x         x  x        x  x


Making it worthwile...

Aly:
e|-0-----5*-|-----5*-----4--0-----5*-|
B|----0-----|-5*------0--------4--0--|
G|----------|------------------------|
D|----------|------------------------|
A|----------|------------------------|
E|----------|------------------------|
 x2 this bar
[ Tab from: http://www.guitaretab.com/a/aly-and-aj/107811.html ]
Aj:
e|-------2--2--------0--0---4---------0h2------0--0--0--0-|
B|-------2--2--------0----0---0-------0---0-4--0--0--0--0-|
G|-------2--2--2--2-------------4--4--4--------4--4--4--4-|
D|-4--4--4-----2--2-------------4--4--4--------4--4--4--4-|
A|-4--4--4-----0--0-------------2--2--2--------2--2--2--2-|
E|-2--2--2------------------------------------------------|
   x  x        x  x             x  x


Chorus:

Aly:
e|-0---0---2---0---|------------|
B|---0---0---0---0-|------------|
G|-----------------|-9--9--9--9-|
D|-----------------|-x--x--x--x-| (x4)
A|-----------------|-7--7--7--7-|
E|-----------------|------------|
    x7 this bar

Aj:
e|-0--0--0--0--0--0--0--0--0--0--0--0--4--4--2--2-|
B|-0--0--0--0--0--0--0--0--0--0--0--0--5--5--4--4-|
G|-2--2--2--2--1--1--1--1--4--4--4--4--6--6--4--4-|
D|-2--2--2--2--2--2--2--2--4--4--4--4--6--6--4--4-| (x4)
A|-0--0--0--0--2--2--2--2--2--2--2--2--4--4--2--2-|
E|-------------0--0--0--0-------------------------|


The view is so clear...

Aly:
e|-------0-----------0---------|
B|----------0-----------0------|
G|-----------------------------|
D|-4--4--------6--6--------7---|
A|-4--4--------7--7--------7---|
E|-2--2--------4--4--------5---|

Aj:
e|-------2--2------------------|
B|-------2--2------------------|
G|-------2--2--------4--4------|
D|-4--4--4--4--6--6--6--6--7---|
A|-4--4--4--4--7--7--------7---|
E|-2--2--2--2--4--4--------5---|


(Repeat Intro but once only)


Verse 2:

Aly:
e|-0-----2--0------2--0------2--0------2--0-|
B|----0---------0---------0---------0-------|
G|------------------------------------------|
D|------------------------------------------|
A|------------------------------------------|
E|------------------------------------------|

Aj:
e|-------------------0------------0--0-----------0-|
B|-------------------0------------0--0-----------0-|
G|-------6--4--------1h2p1--------2-----------4--4-|
D|-------6-----------2------2--2--2-----4--4--4--4-| (x3)
A|-4--4--4-----2--2--2------0--0--0-----2--2--2--2-|
E|-------------0--0--0-----------------------------|
   x  x        x  x         x  x        x  x


Making it worthwile...

Aly:
e|----7*--12*----------------------------|
B|-0-----------12*-----------------------|
G|-------------------9--8--9--11--9--8---|
D|-------------------------------------9-|
A|---------------------------------------|
E|---------------------------------------|


Aj:
e|-------2--2--------0--0---4---------0h2------0--0--0--0-|
B|-------2--2--------0----0---0-------0---0-4--0--0--0--0-|
G|-------2--2--2--2-------------4--4--4--------4--4--4--4-|
D|-4--4--4-----2--2-------------4--4--4--------4--4--4--4-|
A|-4--4--4-----0--0-------------2--2--2--------2--2--2--2-|
E|-2--2--2------------------------------------------------|
   x  x        x  x             x  x


(Repeat Chorus)

Guitar 3:
e|-----14---14--14-----|
B|-12-------12--12--12-|
G|----------13--13-----|
D|---------------------| (x2)
A|---------------------|
E|---------------------|

Aly:
e|--0---0-----0-------|
B|--------4-----------|
G|----4-----4----4--1-|
D|--------------------| (x20)
A|--------------------|
E|--------------------|

Aj:
e|-------------------------2--0--2--0--5*------5*-----|
B|-------------------------0--0--0--0------5*------5*-|
G|-4--4--4--4--6--6--6--6--2--2--2--2-----------------|
D|-4--4--4--4--6--6--6--6--2--2--2--2-----------------| (x2)
A|-2--2--2--2--4--4--4--4--0--0--0--0-----------------|
E|----------------------------------------------------|
then
e|-------------------------0--0--0--0--4*--5*--7*--5*-|
B|-------------------------0--0--0--0-----------------|
G|-4--4--4--4--6--6--6--6--2--2--2--2-----------------|
D|-4--4--4--4--6--6--6--6--2--2--2--2-----------------| (x2)
A|-2--2--2--2--4--4--4--4--0--0--0--0-----------------|
E|----------------------------------------------------|
then "always together..."
e|-0--0--0--0--0---4---2-------|
B|-0--0--0--0----0---0---0-4-0-|
G|-4--4--4--4------------------|
D|-4--4--4--4------------------|
A|-2--2--2--2------------------|
E|-----------------------------|

(Repeat Chorus twice, but on 2nd turn, do only half and proceed to "life is amazing...)


The pace is so crazy, the race is so worth it, life is amazing with you on the ride

Aly:
e|-------0-----------0---------|
B|----------0-----------0------|
G|-----------------------------|
D|-4--4--------6--6--------7---|
A|-4--4--------7--7--------7---|
E|-2--2--------4--4--------5---|

Aj:
e|-------2--2------------------|
B|-------2--2------------------|
G|-------2--2--------4--4------|
D|-4--4--4--4--6--6--6--6--7---|
A|-4--4--4--4--7--7--------7---|
E|-2--2--2--2--4--4--------5---|

Lyrics:

Chords used:
C#m -  x46654
A9 -   x02200
B9 -   x24400
E -    022100
B/D# - x6444x
B -    x24442
F#m -  244222
E/G# - 4xx45x


Intro: C#m-A9-B9-e-B/D# (x2)

Verse 1:
C#m                e  A9            B9
  We don't have to try to think the same thoughts
C#m              e      A9                         B9
  We just have a way of knowing everything's gonna be OK
C#m                     e                      A9
  We laugh till we cry, read eachother's minds live with a smile
B9              F#m    A9               B9
make it all worthwhile Make it all worthwhile


Chorus:
A9       e               B9               C#m       
       A9
Life has moments hard to describe Feelin' great and feelin' alive
            e              B9               C#m-B 
    e                      B9
Never comin down from this mountain we're on      Always knowin' we're gonna be fine
        C#m       B        A9               e        
     B9               C#m B
Feelin' great and feelin' alive Never comin down from this mountain we're on


Post Chorus:
    F#m                       E/G#
The view is so clear and it's crazy up here
A9(hold)
Life is amazing with you on the ride


(Repeat Intro once)


Verse 3:
C#m               e   A9            B9    
                e    A9               B9
  We don't wanna sleep, just wanna stay up There's so much to say, not enough hours in a day
   C#m                e                      A9
We laugh till we cry, read eachother's minds Live with a smile
B9               F#m   A9               B9
make it all worthwhile Make it all worthwhile


(Repeat Chorus and Post chorus)


Bridge: B9-C#m-A9 (x2)

   B9                   C#m
No time to be lazy, the journey is perfect
    A9
The pace is so crazy, the race is so worth it
B9                        C#m             A9
I will be with you, let's do this together
       B9
Always together


(Repeat Chorus twice, but on 2nd turn, do only half and proceed to post chorus)


Outro:
    F#m                   E/G#                A9(Hold)
The pace is so crazy, the race is so worth it Life is amazing with you on the ride

_________________________________________________

9. In A Second


Tuning: Standard EADGBe and a capo on first fret on both Aly and Aj and an extra guitar

Chords used in this song:
FM7   -  xx3210
C     -  x32010
Gsus4 -  320010
D9    -  xx0230
G     -  320033
Am    -  x02210
F     -  133211
Dm    -  xx0231
Bb    -  x13331
F/A   -  x03211
Intro:

Aly: at 0:09
e|-----3-0--|
B|-3-1---3--|
G|-------2--|
D|-------0--|
A|----------|
E|----------|

Aj: FM7-C-Gsus4-D9 (x2)


Verse 1:

Aly:
   0:18       0:23              0:31
e|-13-------|-----0--------13-|-13-------|
B|----14----|-3-1-------14----|----14----|
G|-------13-|--------13-------|-------13-|
D|----------|-----------------|----------|
A|----------|-----------------|----------|
E|----------|-----------------|----------|

Aj:
FM7   C          Gsus4 D9
Don't know where you   are
FM7      C             Gsus4 D9
  Wish I just could be near  you
FM7 C          Gsus4 D9   FM7       
                 Gsus4 D9
I   would sail o-----ceans To get a glimpse of how you feel


Refrain:

Aly: Idle

Aj:
       F                              G
You're all the things I'm looking For everything and so much more


Chorus:

Aly:
0:46 to 0:50 & 0:52 to 0:57    1:01   1:05 to 1:09
e|------------------0-1-3---|---0---|-----------------0-1-3---|
B|-1-3-1---3-1-3-1--------1-|-------|-1-3-1---3-1-3-1-------1-|
G|-------0------------------|-0-----|-------0-----------------|
D|--------------------------|-------|-------------------------|
A|--------------------------|-------|-------------------------|
E|--------------------------|-------|-------------------------|
          x2

Aj:
C    G Am   F
What I think You are just perfect
C     G  Am F
Could it be That I am worth it
Dm
Is this thing an open door
F
Walk right through to something more
C   G   Am F                         Dm
You and me My life would change in a second
     F
In a second


Verse 2:

Aly: 1:18 to 1:24      1:29   1:31 to 1:37     1:38 to 1:44
e|-0-1-3-------0-----|-----0-|-3-------0-----|-------------0-|
B|-------1--3----1---|---1---|-----1-1---1---|-1-1-1-3---1---|
G|-----------------0-|-0-----|-------------0-|---------0-----|
D|-------------------|-------|---------------|---------------|
A|-------------------|-------|---------------|---------------|
E|-------------------|-------|---------------|---------------|

Extra Guitar:
e|-3-3-3-3-3-3-3-3-3-3-3-3-3-3-3-3--|
B|-1-1-1-1-1-1-1-1-1-1-1-1-1-1-1-1--|
G|-0-0-0-0-0-0-0-0-0-0-0-0-0-0-0-0--|
D|-------------------------------------------| (x4)
A|-------------------------------------------|
E|-------------------------------------------|


Aj:
FM7   C        Gsus4 D9 FM7   C    
                 Gsus4 D9
Don't know how you   feel You seem to keep it to yourself
FM7   C         Gsus4 D9   FM7         
                Gsus4 D9
Would you climb moun--tains To show me this is something real

(Repeat Refrain and Chorus)

Bridge:
Bb                      F/A
Could it be Could it be You and me You and me
F                 G(Hold)
Do I see Do I see clearly

(Repeat Chorus except last 2 lines)
(Repeat Chorus)

__________________________________________________

10. Speak For Myself


Tuning: Drop D both aly and Aj

/ = slide up
\ = slide down
h = hammer
p = pull off
* = harmonics

Verse 1:

Aly: Idle

Aj: 0:01
E|--------------------------------------|
B|-8--8--8------------6--6--6-----------|
G|-7--7--7------3--3--5--5--5-----------|
D|-5--5--5--5\1-1--1--3--3--3-----------| (x4)
A|-5--5--5--5\1-1--1--3--3--3--1h3p1h3--|
D|-5--5--5--5\1-1--1--3--3--3-----------|

Aly: 0:15 (listen carefully here in the guitar effects)
E|-------------------------------------|
B|-------------------------------------|
G|-----------------------------7*--5*--|
D|-10-10-10-10\3-3-3-3/5-5-5-5---------|
A|--8--8--8--8\1-1-1-1/3-3-3-3---------|
D|-------------------------------------|
then
E|-------------------------------------------|
B|-------------------------------------------|
G|-----------------------------3h5p3h5/7\5\3-|
D|-10-10-10-10\3-3-3-3/5-5-5-5---------------|
A|--8--8--8--8\1-1-1-1/3-3-3-3---------------|
D|-------------------------------------------|


Chorus:

Aly: 0:29 Cuz I will, I will speak for myself
e|---------------------------------------------------------------------------|
B|---------------------------------------------------------------------------|
G|---------------------------------3-3-3-3-3-3-3-3-3-3-3-3-3-3-3-3-----------|
D|-1-1-1-1-1-1-3-3-3-3-3-3-3-3-3-3-3-3-3-3-3-3-3-3-1-1-1-1-1-1-1-1--|
A|-1-1-1-1-1-1-3-3-3-3-3-3-3-3-3-3-1-1-1-1-1-1-1-1-3-3-3-3-3-3-3-3--|
D|-1-1-1-1-1-1-3-3-3-3-3-3-3-3-3-3-------------------------------------------|

Aj:
e|---------------------------------1-1-1-1-1-1-1-1---------------------------|
B|-4-4-4-4-4-4-6-6-6-6-6-6-6-6-6-6-3-3-3-3-3-3-3-3---------------------------|
G|-3-3-3-3-3-3-5-5-5-5-5-5-5-5-5-5-3-3-3-3-3-3-3-3-3-3-3-3-3-3-3-3--|
D|-1-1-1-1-1-1-3-3-3-3-3-3-3-3-3-3-3-3-3-3-3-3-3-3-1-1-1-1-1-1-1-1--|
A|-1-1-1-1-1-1-3-3-3-3-3-3-3-3-3-3-1-1-1-1-1-1-1-1-3-3-3-3-3-3-3-3--|
D|-1-1-1-1-1-1-3-3-3-3-3-3-3-3-3-3-------------------------------------------|

Aly: 0:36 What you see isnít all I am
e|-----------------------------------------------------------13----------|
B|---------------------------------------------------11---------11----11-|
G|------------------------------------------------------10---------10----|
D|-1-1-1-1-1-1-3-3-3-3-3-3-3-3-3-3-5-5-5-5-5-5-5-5-8-------8-------------|
A|-1-1-1-1-1-1-3-3-3-3-3-3-3-3-3-3-5-5-5-5-5-5-5-5-8---------------------|
D|-1-1-1-1-1-1-3-3-3-3-3-3-3-3-3-3-5-5-5-5-5-5-5-5-8---------------------|

Aj:
e|-----------------------------------------------6---------1-------|
B|-4-4-4-4-4-4-6-6-6-6-6-6-6-6-6-6---6-------------------3---3-----|
G|-3-3-3-3-3-3-5-5-5-5-5-5-5-5-5-5-----8p7-------------3-------3---|
D|-1-1-1-1-1-1-3-3-3-3-3-3-3-3-3-3-8-------7h8-5-----3-----------3-|
A|-1-1-1-1-1-1-3-3-3-3-3-3-3-3-3-3-5-----------5---1---------------|
D|-1-1-1-1-1-1-3-3-3-3-3-3-3-3-3-3-5-----------5-------------------|

Aly: 0:43 I will, I will speak for myself
e|------------------------------------------------------------------13----|
B|---------------------------------------------------------10h11/13----13-|
G|------------------------------------------------------10----------------|
D|-1-1-1-1-1-1-3-3-3-3-3-3-3-3-3-3-5-5-5-5-5-5-5-5---10-------------------|
A|-1-1-1-1-1-1-3-3-3-3-3-3-3-3-3-3-5-5-5-5-5-5-5-5-8----------------------|
D|-1-1-1-1-1-1-3-3-3-3-3-3-3-3-3-3-5-5-5-5-5-5-5-5------------------------|

Aj:
e|---------------------------------------------------------------------------|
B|-4-4-4-4-4-4-6-6-6-6-6-6-6-6-6-6-6-6-6-6-6-6-6-6-6-6-6-6-6-6-6-6--|
G|-3-3-3-3-3-3-5-5-5-5-5-5-5-5-5-5-7-7-7-7-7-7-7-7-5-5-5-5-5-5-5-5--|
D|-1-1-1-1-1-1-3-3-3-3-3-3-3-3-3-3-8-8-8-8-8-8-8-8-3-3-3-3-3-3-3-3--|
A|-1-1-1-1-1-1-3-3-3-3-3-3-3-3-3-3-5-5-5-5-5-5-5-5-3-3-3-3-3-3-3-3--|
D|-1-1-1-1-1-1-3-3-3-3-3-3-3-3-3-3-5-5-5-5-5-5-5-5-3-3-3-3-3-3-3-3--|

Aly: 0:50 Thereís so much youíre missing
e|------------------------------------|
B|------------------------------------|
G|-5-5-5-5-5-5-3-3-3-3-3-3-3-3-3-3----|
D|-5-5-5-5-5-5-3-3-3-3-3-3-3-3-3-3-1--|
A|-3-3-3-3-3-3-1-1-1-1-1-1-1-1-1-1-1--|
D|---------------------------------1--|

Aj:
e|-3-3-3-3-3-3-1-1-1-1-1-1-1-1-1-1----|
B|-4-4-4-4-4-4-3-3-3-3-3-3-3-3-3-3-4--|
G|-5-5-5-5-5-5-3-3-3-3-3-3-3-3-3-3-3--|
D|-5-5-5-5-5-5-3-3-3-3-3-3-3-3-3-3-1--|
A|-3-3-3-3-3-3-1-1-1-1-1-1-1-1-1-1-1--|
D|---------------------------------1--|

Verse 2:

Aly:
e|-13-------13----13-------13-------13----13-------8-8-6-8-8---8-8-6-8-8---8---8-|
B|----11-11----11----11-11----11-11----11----11--6-----------6-----------6---6---|
G|-------------------------------------------------------------------------------|
D|-------------------------------------------------------------------------------| (x2)
A|-------------------------------------------------------------------------------|
D|-------------------------------------------------------------------------------|
then
e|-----17~--------6-8-8-5-|
B|------------------------|
G|------------------------|
D|------------------------|
A|------------------------|
D|------------------------|
then
E|-------------------------------------------|
B|-------------------------------------------|
G|-----------------------------3h5p3h5/7\5\3-|
D|-10-10-10-10\3-3-3-3/5-5-5-5---------------|
A|--8--8--8--8\1-1-1-1/3-3-3-3---------------|
D|-------------------------------------------|

Aj:
E|--------------------------------------|
B|-8--8--8------------6--6--6-----------|
G|-7--7--7------3--3--5--5--5-----------|
D|-5--5--5--5\1-1--1--3--3--3-----------| (x4)
A|-5--5--5--5\1-1--1--3--3--3--1h3p1h3--|
D|-5--5--5--5\1-1--1--3--3--3-----------|


(Repeat Chorus except their last parts, proceed below instead)


Aly: 1:47 Thereís so much youíre missing
e|------------------------------------------18\13\6--------------|
B|---------------------------------------16---------6------------|
G|-5-5-5-5-5-5-3-3-3-3-3-3-3-3-3-3----15--------------8----------|
D|-5-5-5-5-5-5-3-3-3-3-3-3-3-3-3-3-1--------------------8--------|
A|-3-3-3-3-3-3-1-1-1-1-1-1-1-1-1-1-1----------------------6------|
D|---------------------------------1-------------------------8\1-|

Aj:
e|-3-3-3-3-3-3-1-1-1-1-1-1-1-1-1-1-------------1-----6-----------|
B|-4-4-4-4-4-4-3-3-3-3-3-3-3-3-3-3-4-----3h4p3---4p3-----4\3-----|
G|-5-5-5-5-5-5-3-3-3-3-3-3-3-3-3-3-3-3/5-----------------3---8---|
D|-5-5-5-5-5-5-3-3-3-3-3-3-3-3-3-3-1-------------------1-1---8---|
A|-3-3-3-3-3-3-1-1-1-1-1-1-1-1-1-1-1-------------------1-----6---|
D|---------------------------------1-------------------1---------|


Bridge: (This part will exercise your fingers, especially for Aj, so be prepared)

Aly: 1:54 I'm not sorry for who I am
e|-------------------------------|
B|-3/10--11--10------------------|
G|-----------------3/7--8--7--8--|
D|-------------------------------| (x2)
A|-------------------------------|
D|-------------------------------|

Aj:
e|--------------------------------------6-5-----------|
B|-------------11---------------------------6---6-----|
G|----------10----10-----------7--8--7--------3---8p7-|
D|-7--8--7-----------13-13-12--8--8--8----------------| (x2)
A|-8--8--8---------------------6--6--6----------------|
D|-7--8--7--------------------------------------------|

Aly: Know that, donít need to understand
e|------------13----13----13---------------|
B|---------------11----11----11------------|
G|-----------------------------------------|
D|-8--8--10---------------------8--8--7~---|
A|-5--6---8---------------------5--6--8~---|
D|-----------------------------------------|

Aj:
e|-----------1---------------------|
B|-3--4------------------3--4--6~--|
G|-3--3--2-----3----2h3--3--3--5~--|
D|-0--1--3--------3------0--1--3~--|
A|-1--1--3---------------1--1--3~--|
D|-0--1--3---------------0--1--3~--|

Guitar 3: you will hear this part at 2:15
e|-6-----5-----8-----6-----5---6---|
B|---6-----6-----6-----6-----6---6-|
G|-----7-----7-----7-----7---------|
D|---------------------------------| (x2)
A|---------------------------------|
D|---------------------------------|

(Repeat Chorus except their last parts, proceed to the 1:47 part then here below)

Outro:

Aly: 2:50
e|---6---6---6---6---3-1-3---------|
B|-3---3---3---3---1-------6-------|
G|-------------------------5---2---|
D|-------------------------3-3-3-3-|
A|-------------------------3-3-3-3-|
D|-------------------------3-3-3-3-|

Aj:
e|-----3----------|
B|-3---4----------|
G|-3---5--2-2-2-2-|
D|-0---5--3-3-3-3-|
A|-1---3--3-3-3-3-|
D|-0------3-3-3-3-|

Aly: 2:54 I will, I will speak for myself
e|-----------------------------------------------------|
B|-----------------------------------------------------|
G|---------------------------------3-3-3-3-3-3-3-3-----|
D|-1-1-1-1-1-1-3-3-3-3-3-3-3-3-3-3-3-3-3-3-3-3-3-3-1~--|
A|-1-1-1-1-1-1-3-3-3-3-3-3-3-3-3-3-1-1-1-1-1-1-1-1-1~--|
D|-1-1-1-1-1-1-3-3-3-3-3-3-3-3-3-3-----------------1~--|

Aj:
e|-----------------------------------------------------|
B|-4-4-4-4-4-4-----------6-6-6-6-6-----------------4~--|
G|-3-3-3-3-3-3-2-2-2-2-2-5-5-5-5-5-3-3-3-3-3-3-3-3-3~--|
D|-1-1-1-1-1-1-3-3-3-3-3-3-3-3-3-3-3-3-3-3-3-3-3-3-1~--|
A|-1-1-1-1-1-1-3-3-3-3-3-3-3-3-3-3-1-1-1-1-1-1-1-1-1~--|
D|-1-1-1-1-1-1-3-3-3-3-3-3-3-3-3-3-----------------1~--|


Lyrics:


Chords used: Effective on Drop D tuning only
G5   -  55578x
Bb5  -  x133xx or 888xxx
Eb5  -  11134x
F5   -  33356x
C5   -  x355xx
Cm7  -  x313xx
Bb/A -  787xxx
Eb   -  x688xx
EbM7 -  x687xx
Bb/D -  01033x


Verse 1:
       G5     Eb5    F5   C5         G5     
     Eb5     F5   C5
Do you see me do you care? You talk about me like Iím not there
            G5           Eb5     F5   C5         
             Eb5  F5  C5
Donít get a word in when youíre around I bet you donít know what Iím about


Chorus:
    Eb5     F5  Bb5 Cm7             Eb5     
F5              G5
Cuz I will, I will speak for myself What you see isnít all I am
  Bb5                   Eb5     F5  G5  F5
I need a place to stand I will, I will speak for myself
        C5             Bb5     Eb5
Thereís so much youíre missing If you cared youíd listen


Verse 2:
         G5           Eb5      F5 C5            
        Eb5    F5   C5
You suffocate me, you drown me out Iím tired of waiting without a doubt
           G5   Eb5          F5 C5            
          Eb5   F5   C5
I feel Iím fading, I flicker out My heart is screaming without a sound


(Repeat Chorus)


Bridge:
Bb/A-Bb5-Bb/A                  EbM7-Eb-EbM7
_____Iím not sorry for who I am__________take it or leave it
Bb/A-Bb5-Bb/A                             EbM7-Eb-EbM7
______________Itís my time to take a stand_________Throw it or keep it
Bb/D Eb5   F5                      Bb/D  
     F5
Know that, donít need to understand Wonít say it again
(plucking here)
I will, I will, I will, you know I will

(Repeat Chorus)

Outro:
Bb/D              C5    F5
If you care you'd listen
Eb5     F5  Bb5 Eb5(hold)
I will, I will speak for myself

____________________________________________________

11. Out Of The Blue


Chords:
Em:022000
C:x032010
G:320033
Dsus:xx0233
D:xx0232
Em7:022033
C9:x32033
G/F#:2x0233


CAPO 2

Intro: Em C G Dsus(D)

Verse 1:
         Em
When something's pure
          C                       G
How can people just say
                  Dsus
We're not meant to be?
            Em
And when something's true
          C                   G                D
How can people just keep me away from you?

Pre-chorus

   Em
Suddenly I'm all alone
C
Pushed away from nothing wrong
 G
Don't you have the guts to say
    Dsus
How you feel about me?

Chorus:

Em7         C9
Out of the blue
     G                     D
They said we couldn't be together
   Em7              C9
I have to get over you
        G
We're given no choice
  Dsus(D)
We have no voice
Em7          C9         G      Dsus
Out of the blue

Verse 2:

         Em                 C
I can't even call on the telephone
        G                    Dsus(D)
Don't even know if you're at home.
     Em                 C
But took control, just how we feel
G                       D
Between you and I, not for one to still

Pre-chorus

Em
Suddenly I'm all alone
C
Pushed away from nothing wrong
 G
Don't you have the guts to say
Dsus
How you feel about me?

Chorus:

Em7          C9
Out of the blue
     G                     D
They said we couldn't be together
   Em7             C9
I have to get over you
        G
We're given no choice
   Dsus(D)                          G/F#
We have no voice

Bridge:
                                   Em
Just wanna hear what you've got to say
                                       G/F#
Are you feeling the same 'cause I'm not ok
                                        C9
Thought when we met that was something more
           G                           D
But the others said no, they shut the door

Chorus:

Em7         C9
Out of the blue
     G                      D
They said we couldn't be together
Em7                 C9
I have to get over you
G
We're given no choice
Dsus(D)
We have no voice

Em7         C9
Out of the blue
     G                         D
You knew we should have been together
        Em7            C9
 Don't wanna get over you
      G
When Love makes a choice
Dsus(D)
It has a voice
Em          C
Out of the blue

_____________________________________________________

12. I Am One Of Them


Tuning: Drop D on 3 guitars, piano

Intro:

Aly's part
e|-----5---6---8-----|
B|---6-----------6---|
G|-5-----5---5-------|
D|-------------------| (x8 til verse)
A|-------------------|
D|-------------------|

Aj's part (She will enter at 0:10)
e|------------------------------------|
B|-6-6-6---4-4---11-11-10/11-6-6------|
G|-7-7---7-3-3/5-10-10-------5-5------|
D|-8-8---8-1-1----8--8-------3-3-5-3--| (x2)
A|-5-5-----1-1----8--8-------3-3------|
D|-5-5-----1-1----8--8-------3-3------|

Guitar 3: at 0:08
e|-15-----15-------15---|
B|-----13----13---------|
G|--------------14------|
D|----------------------|
A|----------------------|
D|----------------------|

Verse1:

I get in the car Another tragic disater

Aly: Idle (coz she sings here)

Aj:
e|-----------------------------------------------------------------|
B|-6-6-6---4-4---11-11-10/11-6-6-----6-6-6---4-4---6-6-----6-6-----|
G|-7-7---7-3-3/5-10-10-------5-5-----7-7---7-3-3/5-5-5-----5-5-----|
D|-8-8---8-1-1----8--8-------3-3-5-3-8-8---8-1-1---3-3-----3-3-----|
A|-5-5-----1-1----8--8-------3-3-----5-5-----1-1---3-3-6-5-3-3-3-1-|
D|-5-5-----1-1----8--8-------3-3-----5-5-----1-1---3-3-----3-3-----|

Piano:
e|-6-6-6-6-6-6-6-6---|
B|-6-6-6-6-6-6-6-6---|
G|-7-7-7-7-7-7-7-7---|
D|-------------------|
A|-------------------|
D|-------------------|

The traffic is stopped People just stare

Aly:
e|------------------------------|
B|------------------------------|
G|------------------------------|
D|-5-5---1-1---3-3-3-3-3-3-3-3--|
A|-5-5---1-1---3-3-3-3-3-3-3-3--|
D|-5-5---1-1---3-3-3-3-3-3-3-3--|

Aj:
e|------------------------------|
B|-------------6-6-6-6-6-6-6-6--|
G|-8-8---3-3---5-5-5-5-5-5-5-5--|
D|-5-5---1-1---3-3-3-3-3-3-3-3--|
A|-5-5---1-1---3-3-3-3-3-3-3-3--|
D|-5-5---1-1---3-3-3-3-3-3-3-3--|

Piano:
e|-6-6---6-6---6-6-6-6-6-6-6-6--|
B|-6-6---6-6---6-6-6-6-6-6-6-6--|
G|-7-7---7-7---7-7-7-7-7-7-7-7--|
D|------------------------------|
A|------------------------------|
D|------------------------------|

Another alert does the kids have a prayer

Aly:
e|---------------------------------------------|
B|---------------------------------------------|
G|-3-3-3-3-3-3-3-3-3-3-3-3-3-3-3-3-3--|
D|-1-1-1-1-1-1-1-0-1-1-1-1-1-1-1-1-1--|
A|-3-3-3-3-3-3-3-1-1-1-1-1-1-1-1-1-1--|
D|---------------0-1-1-1-1-1-1-1-1-1-----------|

Aj:
e|---------------------------------------------|
B|---------------------------------------------|
G|-5-5-5-5-5-5-5-7-8-8-8-8-8-8-8-8-8--|
D|-5-5-5-5-5-5-5-7-8-8-8-8-8-8-8-8-8--|
A|-3-3-3-3-3-3-3-5-6-6-6-6-6-6-6-6-6--|
D|---------------------------------------------|

Piano:
e|-6-6-6-6-6-6-6-6---|
B|-6-6-6-6-6-6-6-6---|
G|-7-7-7-7-7-7-7-7---|
D|-------------------|
A|-------------------|
D|-------------------|

Life is not fair!!!

Aly:
e|-6-------6-------8-------|
B|---6-------6-------6-8---|
G|-----8-7-----8-7-------5-|
D|-------------------------|
A|-------------------------|
D|-------------------------|

Aj:
e|-----------------------------------|
B|-----------------------------------|
G|-5-5-5-5---------------------------|
D|-5-5-5-5-1-1-1-1-3-3-3-3--|
A|-3-3-3-3-1-1-1-1-3-3-3-3--|
D|---------1-1-1-1-3-3-3-3-----------|

Piano:
e|-6-6-6-6-6-6-6-6-8-8-8-8--|
B|-6-6-6-6-6-6-6-6-6-6-6-6--|
G|-7-7-7-7-7-7-7-7-7-7-7-7--|
D|-----------------------------------|
A|-----------------------------------|
D|-----------------------------------|

Chorus:

Its hard to look outside my door

Aly: This Time Aly can pluck faster riffs than before while singing simultaneously
x - means palm mute
e|--------------------------------------------|
B|---------------------11---------------------|
G|-------10-----10--------10-------10---------|
D|---8-----------------------8--------8--- ---|
A|-8---8----8-8----8-8---------8-8-------- ---|
D|---------------------------------------- ---|
   x x x    x x    x x    x    x x    x     |--(x4 these 2 bars)
then                                        |
e|---------------------------------------- ---|
B|--------------------------------11----------|
G|-------10-----8-----7------10/8----10-------|
D|---8--------8-----8---10/8------------------|
A|-8---8----8-----8---------------------------|
D|--------------------------------------------|
   x   x    x   x x   x           x  x

Aj:
e|-------------------------------------------|
B|-4-4-4-4-4-4-4-4-6-6-6-6-8-8-8-8--|
G|-3-3-3-3-3-3-3-3-5-5-5-5-7-7-7-7--|
D|-1-1-1-1-1-1-1-1-3-3-3-3-5-5-5-5--|
A|-1-1-1-1-1-1-1-1-3-3-3-3-5-5-5-5--|
D|-1-1-1-1-1-1-1-1-3-3-3-3-5-5-5-5--|

Aj: This could have a happy end
e|--------------------------------------|
B|-4-4-4-4-4-4-4-4-6-6-6-6-11-11-11-11--|
G|-3-3-3-3-3-3-3-3-5-5-5-5-10-10-10-10--|
D|-1-1-1-1-1-1-1-1-3-3-3-3--8--8--8--8--|
A|-1-1-1-1-1-1-1-1-3-3-3-3--8--8--8--8--|
D|-1-1-1-1-1-1-1-1-3-3-3-3--8--8--8--8--|

Aj;Cause I.....
e|-------------------------------------------|
B|-4-4-4-4-4-4-4-4-6-6-6-6-6-6-6-6--|
G|-3-3-3-3-3-3-3-3-5-5-5-5-5-5-5-5--|
D|-1-1-1-1-1-1-1-1-3-3-3-3-3-3-3-3--|
A|-1-1-1-1-1-1-1-1-3-3-3-3-3-3-3-3--|
D|-1-1-1-1-1-1-1-1-3-3-3-3-3-3-3-3--|

Guitar 3:
e|-----6---8---6---8-------6/13\10/11-|
B|---6---6---6---6-----6--------------|
G|-8-----------------8---8------------|
D|------------------------------------|
A|------------------------------------|
D|------------------------------------|

Post Chorus:

Piano: Press The Keys fast
e|-------------------------------------------------------------|
B|--------1--------------1--------------1--------------1-------|
G|----3-----3-2-3----3-----3-2-3----3-----3-2-3----3-----3-2-3-|
D|-5----3----------3---3---------3----3----------3---3---------|
A|-5-----------------------------3-----------------------------|
D|-5-----------------------------3-----------------------------|
then
e|-----------------------------------------|
B|--------1--------------1------------1----|
G|----3-----3-2-3----2-----3-2-3----3----3-|
D|-2----3----------3---3---------1---------|
A|-3-----------------------------1---------|
D|-2-----------------------------1---------|

Guitar 3: at 1:31
e|-15-----15-------15---|
B|-----13----13---------|
G|--------------14------|
D|----------------------|
A|----------------------|
D|----------------------|

(Repeat Verse and Chorus)

Outro:
I am one of them, wish I could bring back...

Aly
e|-----5---6---8-----|
B|---6-----------6---|
G|-5-----5---5-------|
D|-------------------| (repeat until fade out)
A|-------------------|
D|-------------------|

Aj
e|------------------------------------|
B|-6-6-6---4-4---11-11-10/11-6-6------|
G|-7-7---7-3-3/5-10-10-------5-5------|
D|-8-8---8-1-1----8--8-------3-3-5-3--| (repeat until fade out)
A|-5-5-----1-1----8--8-------3-3------|
D|-5-5-----1-1----8--8-------3-3------|

Intro: F(x4) G5-D#5-Bb5-F5 (x2)


CHORDS USED: In Drop D tuning Only
G5  - 55876x
D#5 - 11134x
Bb5 - 8-8-8-10-11-x
F5  - 33356x
C5  - 355xxx
D5  - 000xxx
C/E - 232xxx

Intro: G5-D#5-Bb5-F5(x2)

Verse 1:
  G5         D#5
I get in the car
        Bb5      F5
Another tragic disaster
       G5            D#5
But I'm safe where I am
     Bb5       F5
Yet another is captured
    G5
The traffic is stopped
D#5          F5
People just stare
 C5                D5  D#5
Another alert does the kids have a prayer
C5      D#5 F5
Life is not fair


Chorus:
D#5            F5              G5
   Its hard to look outside my door
D#5             F5               G5
   With all the news reports and more
D#5            F5                   G5
   Yet I would do my part and stay alert
D#5            F5                     G5
   For all the kids out there who are getting hurt
D#5         F5            G5
   It could have happened to me
D#5        F5      G5
   Can you make me believe
D#5           F5     Bb5
   This could have a happy end
D#5     F5
   Cuz' I

am one of them

Post chorus; Piano: G5-F5-C/E-D#5


Verses 2:
  G5          D#5         Bb5          F5
I try to grow up But I am chased by my fears
        G5         D#5      Bb5      F5
It could happen to me And I worry in tears
  G5                D#5             F5
Reports of the girl Makin' me scared
C5            D5  D#5
Led of to die and why was I spared?
C5      D#5 F5
Life is not fair

(Repeat chorus)


Outro:
G5   D#5        Bb5
I am one of them
   F5
Am one of them
G5   D#5        Bb5
I am one of them
   F5
Am one of them
G5   D#5        Bb5
I am one of them
   F5
Am one of them
G5     D#5          Bb5   F5
I wish I could bring back all of them

G5-D#5-Bb5-F5 (Until fade Out)

______________________________________________

13. Sticks And Stones

Aly and Aj
Sticks and Stones
Into The Rush
2005 Holywood Records
Submitted by: paramore_fans@yahoo.com
This is 100% correct for Aj, coz I listened to it carefully
95% only for Aly coz the bridge is not easy to predict

Tuning: Standard EADGBe

Chords used:
Am  -    x02210
G   -    320003
F   -    133211
C   -    x32010
G/B -    x20003
Fm  -    133111
Bb  -    x13331
G#  -    466544

Intro:

Aly:
e|-19-19-19----------15-15-15----------------------|
B|----------17-17-17----------13-13-13-15-15-12-12-|
G|-------------------------------------------------|
D|-------------------------------------------------| (x2)
A|-------------------------------------------------|
E|-------------------------------------------------|

Aj: Am (x2)

Verse 1:

Aly: Same as Intro at 0:15 to 0:19 and 0:30 to 0:34

Aj:
Am
Sitting in my room feelin' sorry For myself - I can't feel worse
          G       F                   Am
Well what else? I wonder what I could say
   Am
To stop the voices taunting, laughing
                                                G
The way they're acting, I wish they'd just disappear
    F
The joke is always on me (it's always on me)


Refrain 1:

Aly:
e|-8---7-8----7-8--|
B|---8------8------|
G|-----------------|
D|-----------------| (x10)
A|-----------------|
E|-----------------|

Aj:
C              G/B   Am        G              F
Why don't they understand That we are all the same
                              C              G/B   Am
And we all feel lost at times Why don't they understand
     G              F     (Break)
That someone else's pain, Is not for gain


Chorus:

Aly: 0:59 to 1:06                                     1:07
e|-13-13-13-12-12-12-12-12-------------------------|-8-----7-|
B|-------------------------15-15-15-13-13-13-------|-----8---|
G|-------------------------------------------12-12-|---9-----|
D|-------------------------------------------------|---------|
A|-------------------------------------------------|---------|
E|-------------------------------------------------|---------|
                       x2                                x2

Aly: 1:10 to 1:12                                     1:13
e|-13-13-13-12-12-12-12-12-------------------------|-4~------|
B|-------------------------15-15-15-13-13-13-------|-6~------|
G|-------------------------------------------12-12-|-5~------|
D|-------------------------------------------------|---------|
A|-------------------------------------------------|---------|
E|-------------------------------------------------|---------|


Aj:
C                       G/B
Sticks and stones won't break my soul
    Am                    G
Get out of the way, I'm invincible
F                                              C
Throw them down 'Cause the one you hurt's not around
     G/B        Fm(Break)
Not around It's not your place - honestly


Verse 2:

Aly: 1:17 to 1:28
e|-19-19-19----------15-15-15----------------------|
B|----------17-17-17----------13-13-13-15-15-12-12-|
G|-------------------------------------------------|
D|-------------------------------------------------| (x3)
A|-------------------------------------------------|
E|-------------------------------------------------|

Aly: 1:30
e|-19~--
B|-20~--
G|-19~--
D|------|
A|------|
E|------|

Aj:
Am                                                                      G
In the end you'll be the victim You're the one who has to live with yourself
    F                        Am
And when you're reachin' for help They'll be no one (there's no one)

Refrain 2:

Aly:
e|-8---7-8----7-8--|
B|---8------8------|
G|-----------------|
D|-----------------| (x10)
A|-----------------|
E|-----------------|

Aj:
C             G/B   Am        G              F
Why don't you understand That we are all the same
                              C             G/B   Am
And we all feel lost at times Why don't you understand
     G              F     (Break)
That someone else's pain, Is not for gain


Chorus 2:

Aly: Same Riff as Chorus 1:

Aj:
C                       G/B
Sticks and stones won't break my soul
    Am                    G
Get out of the way, I'm invincible
F                                              C
Throw them down 'Cause the one you hurt's not around
     G/B        Fm               Fm
Not around It's not your place - honestly


Bridge:

Aly: 2:15 to 2:29
e|-13-13-13-12-12-12-12-12-------------------------|
B|-------------------------15-15-15-13-13-13-------|
G|-------------------------------------------12-12-|
D|-------------------------------------------------|
A|-------------------------------------------------|
E|-------------------------------------------------|
                  x4

Aly: 2:30 to 2:33                              2:36
e|-8-----8-----8-----8-----8---8---|-13-13-13-13-13-12-12-12-|
B|-----8-----8-----8-----8---8---8-|-------------------------|
G|---9-----9-----9-----9-----------|-------------------------|
D|---------------------------------|-------------------------|
A|---------------------------------|-------------------------|
E|---------------------------------|-------------------------|
               x2

Aj:
Bb                              C
I won't live in chains I've got somethin' to give
        Bb              G#         C
I won't play these games Yeah, I'd rather live
              Bb
You know I've come too far - to be like you are


Refrain 3:

Aly: 2:43    2:44
e|-17~----|----------------12----12-|
B|--------|-------13----13----13----|
G|--------|----12----12-------------|
D|--------|-14----------------------|
A|--------|-------------------------|
E|--------|-------------------------|


Aj: Palm mute only
C             G/B   Am
Why don't you understand
     G              F
That we are all the same


Chorus 2:

Aly: Same riff as Chorus 1

Aj:
C                       G/B
Sticks and stones won't break my soul
    Am                    G
Get out of the way, I'm invincible
Fm
Throw them down
C                 G/B              Am                 G
La la la, la, la, La la la, la, la, La la la, la, la, La, la, la
C                                            C
Throw them down 'Cuz the one you hurt's not around (not around)
     G/B                     Am       G
Not around (not around) Not around anymore
     Fm(Break)
It's not your place - honestly

Outro:

Aly:
e|-8---7-8----7-8-|-4~--|
B|---8------8-----|-6~--|
G|----------------|-5~--|
D|----------------|-----|
A|----------------|-----|
E|----------------|-----|
         x10

Aj: C-G/B-Am-G-F--C-G/B-Am-G-Fm

_____________________________________________________

14. Protecting Me


Verse 1:
Em            C      G       Em
You, You're always there for me
  C     G        Em
When I need you most
C         G           C      G
Day and night you're by my side
Em     C   G
Protecting me
Em      C           G      Em
When I feel like crashing down
     C      G    Em
You seem to be around
 C         G
There you are
        C        G
You're not that far cos

G       C   G       C
Whenever, where ever baby
Em                C
You'll protect me
G              C
No matter what
G            C  G                 C
Hold me tight with all your might
Em                C      G
And you'll never let me go

Em     C   G
Protecting me

Em     C    G     Em
You listen to me when
     C       G       Em
I speak of love and doom
      C         G        C          G
You know that when my hearts been bent
Em       C        G       Em
When my lifes tumbling around
      C      G        Em
You take me off the ground
     C        G    C     G
You tell me everythings ok

G       C   G       C
Whenever, where ever baby
Em                C
You'll protect me
G              C
No matter what
G            C  G                 C
Hold me tight with all your might
Em                C      G
And you'll never let me go

G             C
You'll never let me go
G             C
You'll never let me go
Em            C
You'll never let me go

Em       C
When its my turn (My turn)
G            D
To help you out (Help you out)
Em        C
I glady lift you up
 G          D
Without a doubt

G       C   G       C
Whenever, where ever baby
Em                C
You'll protect me
G              C
No matter what
G            C  G                 C
Hold me tight with all your might
Em                C      G
And you'll never let me go


G       C   G       C
Whenever, where ever baby
Em                C
You'll protect me
G              C
No matter what
G            C  G                 C
Hold me tight with all your might
Em                C      G
And you'll never let me go


Em            C      G       Em
You, You're always there for me
  C     G        Em
When I need you most
C         G           C      G
Day and night you're by my side
Em         G
Protecting me
Em         G
Protecting me

______________________________________________

15. Slow Down


Tuning: Drop D on both Aly and Aj's guitar

Intro:

Aly: Idle

Aj:
e|-------------------------------------------|
B|-------------------------------------------|
G|-3--3--3-3--3-3--3--3-3--3-5--5--5-5--5-5--|
D|-3--3--3-3--3-3--3--3-3--3-3--3--3-3--3-3--|
A|-1--1--1-1--1-1--1--1-1--1-0--0--0-0--0-0--|
D|-------------------------------------------|


Verses:

Aly: Idle

Aj:
e|-----------------------------------------------------|
B|-----------------------------------------------------|
G|-3--3--3-3--3-3--3--3-3--3-5--5--5-5--5-5--5--5-5--5-|
D|-3--3--3-3--3-3--3--3-3--3-3--3--3-3--3-3--3--3-3--3-|
A|-1--1--1-1--1-1--1--1-1--1-0--0--0-0--0-0--0--0-0--0-|
D|-----------------------------------------------------|

Aj:
e|-----------------------------------------------------|
B|---------------------------4--4--4-4--4-4--4--4-4--4-|
G|-3--3--3-3--3-3--3--3-3--3-3--3--3-3--3-3--3--3-3--3-|
D|-3--3--3-3--3-3--3--3-3--3-1--1--1-1--1-1--1--1-1--1-|
A|-5--5--5-5--5-5--5--5-5--5-1--1--1-1--1-1--1--1-1--1-|
D|-5--5--5-5--5-5--5--5-5--5-1--1--1-1--1-1--1--1-1--1-|

Aj
e|-----------------------------------------------------|
B|-----------------------------------------------------|
G|-3--3--3-3--3-3--3--3-3--3-5--5--5-5--5-5--5--5-5--5-|
D|-3--3--3-3--3-3--3--3-3--3-3--3--3-3--3-3--3--3-3--3-|
A|-1--1--1-1--1-1--1--1-1--1-3--3--3-3--3-3--3--3-3--3-|
D|---------------------------3--3--3-3--3-3--3--3-3--3-|

Aj:
e|-----------------------------------------------------------|
B|---------------------------4-4-4-4-4-4-4-4-4-4-4-4-4-4-4-4-|
G|-3--3--3-3--3-3--3--3-3--3-3-3-3-3-3-3-3-3-3-3-3-3-3-3-3-3-|
D|-3--3--3-3--3-3--3--3-3--3-1-1-1-1-1-1-1-1-1-1-1-1-1-1-1-1-|
A|-5--5--5-5--5-5--5--5-5--5-1-1-1-1-1-1-1-1-1-1-1-1-1-1-1-1-|
D|-5--5--5-5--5-5--5--5-5--5-1-1-1-1-1-1-1-1-1-1-1-1-1-1-1-1-|


Chorus: There is also a synthesizer here but I can't figure out it's tab coz it's very fast

Aly: Slow down!!! (listen carefully here)
e|---------------------6-------6---|
B|-----3---6-----4-------3---4---6-|
G|---3---3---3-----3-------3-------|
D|-3-----------3-----3-------------| (x4)
A|---------------------------------|
D|---------------------------------|

Aj:
e|---------------------------------------------------------------------------|
B|-8-8-8-8-8-8-8-8-4-4-4-4-4-4-4-4-6-6-6-6-6-6-6-6-8-8-8-8-8-8-8-8--|
G|-7-7-7-7-7-7-7-7-3-3-3-3-3-3-3-3-5-5-5-5-5-5-5-5-7-7-7-7-7-7-7-7--|
D|-5-5-5-5-5-5-5-5-1-1-1-1-1-1-1-1-3-3-3-3-3-3-3-3-5-5-5-5-5-5-5-5--|
A|-5-5-5-5-5-5-5-5-1-1-1-1-1-1-1-1-3-3-3-3-3-3-3-3-5-5-5-5-5-5-5-5--|
D|-5-5-5-5-5-5-5-5-1-1-1-1-1-1-1-1-3-3-3-3-3-3-3-3-5-5-5-5-5-5-5-5--|

Aj:
e|---------------------------------------------------------------------------|
B|-8-8-8-8-8-8-8-8-4-4-4-4-4-4-4-4-------------------------------------------|
G|-7-7-7-7-7-7-7-7-3-3-3-3-3-3-3-3-3-3-3-3-3-3-3-3-2-2-2-2-2-2-2-2--|
D|-5-5-5-5-5-5-5-5-1-1-1-1-1-1-1-1-3-3-3-3-3-3-3-3-3-3-3-3-3-3-3-3--|
A|-5-5-5-5-5-5-5-5-1-1-1-1-1-1-1-1-1-1-1-1-1-1-1-1-0-0-0-0-0-0-0-0--|
D|-5-5-5-5-5-5-5-5-1-1-1-1-1-1-1-1-------------------------------------------|

Aly: If you just let me breathe...
e|-------------13-11-10-11-------------------------------------------------|
B|-11-13-11----------------11----------------------------------------------|
G|----------10----------------12-10----------------------------------------|
D|----------------------------------12-13-12----10-10-10-10-10-10-10-10-10-|
A|-------------------------------------------13-10-10-10-10-10-10-10-10-10-|
D|----------------------------------------------10-10-10-10-10-10-10-10-10-|

Aj:
e|---------------------------------------------|
B|-4-4-4-4-4-4-4-4-4-4-4-4-4-4-4-4-4--|
G|-3-3-3-3-3-3-3-3-5-5-5-5-5-5-5-5-5--|
D|-1-1-1-1-1-1-1-1-5-5-5-5-5-5-5-5-5--|
A|-1-1-1-1-1-1-1-1-3-3-3-3-3-3-3-3-3--|
D|-1-1-1-1-1-1-1-1-----------------------------|

(Repeat Intro, Verses to chorus)

Bridge:

Aly: (listen carefully here)
e|--------------------------------------------------------13-------15/17/18~--|
B|-----------------------------------------------15\13\11----11/13------------|
G|-------10-----------------------------------15------------------------------|
D|-----8----8/10---------------------------15---------------------------------| (x4)
A|---8-----------8/10----------15\13\12/13------------------------------------|
D|-8------------------10/12/13------------------------------------------------|

Aj:
e|---------------------------------------------------------------------------|
B|-4-4-4-4-4-4-4-4-----------------6-6-6-6-6-6-6-6-6-6-6-6-6-6-6-6-----------|
G|-3-3-3-3-3-3-3-3-3-3-3-3-3-3-3-3-5-5-5-5-5-5-5-5-5-5-5-5-5-5-5-5--|
D|-1-1-1-1-1-1-1-1-3-3-3-3-3-3-3-3-3-3-3-3-3-3-3-3-3-3-3-3-3-3-3-3--|
A|-1-1-1-1-1-1-1-1-1-1-1-1-1-1-1-1-3-3-3-3-3-3-3-3-3-3-3-3-3-3-3-3--|
D|-1-1-1-1-1-1-1-1-----------------3-3-3-3-3-3-3-3-3-3-3-3-3-3-3-3-----------|

Aj:
e|---------------------------------------------------------------------------|
B|-4-4-4-4-4-4-4-4-----------------6-6-6-6-6-6-6-6-8-8-8-8-8-8-8-8-----------|
G|-3-3-3-3-3-3-3-3-3-3-3-3-3-3-3-3-5-5-5-5-5-5-5-5-7-7-7-7-7-7-7-7--|
D|-1-1-1-1-1-1-1-1-3-3-3-3-3-3-3-3-3-3-3-3-3-3-3-3-5-5-5-5-5-5-5-5--|
A|-1-1-1-1-1-1-1-1-1-1-1-1-1-1-1-1-3-3-3-3-3-3-3-3-5-5-5-5-5-5-5-5--|
D|-1-1-1-1-1-1-1-1-----------------3-3-3-3-3-3-3-3-5-5-5-5-5-5-5-5-----------|

Aj:
e|---------------------------------------------------------------------------|
B|-4-4-4-4-4-4-4-4-6-6-6-6-6-6-6-6-------------------------------------------|
G|-3-3-3-3-3-3-3-3-7-7-7-7-7-7-7-7-3-3-3-3-3-3-3-3-2-2-2-2-2-2-2-2--|
D|-1-1-1-1-1-1-1-1-5-5-5-5-5-5-5-5-3-3-3-3-3-3-3-3-3-3-3-3-3-3-3-3--|
A|-1-1-1-1-1-1-1-1-5-5-5-5-5-5-5-5-1-1-1-1-1-1-1-1-0-0-0-0-0-0-0-0--|
D|-1-1-1-1-1-1-1-1-5-5-5-5-5-5-5-5-------------------------------------------|

Aj:
e|-------------------------------------------------------------|
B|-4-4-4-4-4-4-4-4-----------------6-6-6-6-6-6-6-6-6-----------|
G|-3-3-3-3-3-3-3-3-3-3-3-3-3-3-3-3-5-5-5-5-5-5-5-5-5--|
D|-1-1-1-1-1-1-1-1-3-3-3-3-3-3-3-3-3-3-3-3-3-3-3-3-3--|
A|-1-1-1-1-1-1-1-1-1-1-1-1-1-1-1-1-3-3-3-3-3-3-3-3-3--|
D|-1-1-1-1-1-1-1-1-----------------3-3-3-3-3-3-3-3-3-----------|

(Repeat Chorus twice)

Outro:

Aly: Plucking
e|---------------------------8-6-5-----1---1---1-----------------6-|
B|-----6---------------6---------------------2---------------------|
G|---5-----5-3-2-3---3---3-5---------3---3-------3---------3p2-----|
D|-3-----3---------5---------------1---------------------1-----3---| (x4)
A|-----------------------------------------------------1-----------|
D|-------------------------------------------------0h1-------------|

Aly: * means harmonics
e|-----------1-------------6----------|
B|---4---3-----3-------------6h8------|
G|-----3---3-----3---------------8-7*-|
D|-1---------------3/5----------------|
A|-1-------------------5/6------------|
D|-1----------------------------------|

Aj:
e|-6~---
B|-6~---
G|-7~---
D|------|
A|------|
D|------|


Lyrics:
Chords used: Drop D only

Bb8  - x133xx
F/A  - x035xx
G4   - 5533xx
D#8  - 11134x
F4   - 3335xx
F8   - 33356x
G8   - 55578x
Cm   - x3554x


Intro: Bb8--F/A

Verse 1:
                Bb8                     F/A
I need a little time To see what you're made of
                 G4                                D#8
I know what's on your mind You're heading straight for love
Bb8                                  F4
Let's not rush You're movin' way too fast
                                      G4
We can figure it out We can make this last
	                 D#8
We don't have to be so serious You need to


Chorus:
     G8  D#8      F8       G8
Slow Down I'm not goin' anywhere
     G8  D#8                   Bb8             F/A
Slow Down If you care I need a little time for air
D#8                                             Cm
   If you just let me breathe Maybe I'll stick around
(Break)
If you slow down

(Repeat Intro)

Verse 2:
(Break)          Bb8                  F/A
I wanna a little space A little less attention
                 G4                      D#8
You see it on my face Don't need an explanation
Bb8                                  F4
Let's not rush You're movin' way too fast
                                      G4
We can figure it out We can make this last
	                 D#8
We don't have to be so serious You need to

(Repeat Chorus)


Bridge:
D#8                Bb8             F8
  Keep calling You won't leave me alone (keep calling, you won't leave me alone)
D#8           Bb8              F8            G8      D#8              G8
  Proclaiming love like it's a joke (love is no joke) Leavin' flowers at my door
Bb9               F/A         D#8         Bb8                F8  (Break)
Have enough Don't need anymore Believe in what we have right now Have to slow down
                 F/A
I'm not goin' anywhere


(Repeat Chorus except last line)
(Repeat Chorus)

Outro: Aly's Plucking while singing here

F8--Gm7--D#8

F8                    Gm7                       D#8
   If you just let me breathe Maybe I'll stick around (I'm going anywhere) (x3)
D#5
You'll have to slow down

____________________________________________________

16. Do You Believe In Magic

COMING SOON AS I UPDATED IT!!! HAHA

_____________________________________________________

17. Walking On Sunshine


A             D         e        D            
D e D
I used to think maybe you love me, now baby i'm sure.
And I just cant wait till the day that you knock on my door.
Now everytime i go for the mailbox gotta hold myself down.
Cuz i just cant wait till you write me your coming around.

CHORUS
                  e           D
I'm walking on sunshine... Whoah!
                  e           D
I'm walking on sunshine... Whoah!
                  e           D
I'm walking on sunshine... Whoah!

A D e D A D e D
And don't it feel good!
YEAH!

A D e D A D e D
And don't it feel good!
YEAH!

A D e D A D e D
And don't it feel good!
YEAH!

REPEAT Once More

A D e D A D e D
I feel the love, i feel the love, i feel a love that's really real!
A D e D A D e D
I feel the love, i feel the love, i feel a love that's really real!

A D e D A D e D
I'm walking on sunshine!

aly and aj
walking on sunshine

this is a queer cover of a gay song, but its not actually as bent as I thought it would be.

standard tuning

intro (played by bass, I think)

e|--------------------------------------|
B|--------------------------------------|
G|--------------------------------------|
D|--------------------------------------|
A|--0-0-0-5-5-5-5-5-7-7-7-7-5-5-5-5-555-|
E|--------------------------------------|

Main run

    A     D         e       D
e|--------------------------------------|
B|--------------------------------------|
G|--2-2-2-7-7-7-7-7-9-9-9-9-7-7-7-7-777-|
D|--2-2-2-7-7-7-7-7-9-9-9-9-7-7-7-7-777-|
A|--0-0-0-5-5-5-5-5-7-7-7-7-5-5-5-5-555-|
E|--------------------------------------|

Chorus

e|--------5-5-5-5-5-7-7-7-7-5-5-5-5-555-|
B|--------7-7-7-7-7-9-9-9-9-7-7-7-7-777-|
G|--6-6-6-7-7-7-7-7-9-9-9-9-7-7-7-7-777-|
D|--7-7-7-7-7-7-7-7-9-9-9-9-7-7-7-7-777-|
A|--7-7-7-5-5-5-5-5-7-7-7-7-5-5-5-5-555-|
E|--5-5-5-------------------------------|

if you want to solo, its in the key of A (5th fret E string)

and I would use the blues scale (the essential in rock guitar!):

e|--------------------------5-8-|
B|----------------------5-8-----|
G|----------------5-7-8---------|
D|------------5-7---------------|
A|------5-6-7-------------------|
E|--5-8-------------------------|

e|---------------------------------------|
B|---------------------------------------|
G|---------------------------------------|
D|--------------------14-14-14-14-14-12~-|
A|----------5-5-5-5-5--------------------|
E|--5-5-5-5------------------------------|


Bass parts

Tuning: standard e A D G


Intro/Verse/Outro
G:------------------------------------:
D:------------------------------------:
A:--0-0-0--5-5-5-5--7-7-7--5-5-5-5-5--:
E:------------------------------------:

Chorus
G:----------------------------------------------------------:
D:----------------------------------------------------------:
A:--00000000-55555555-77777777-55555555--00000000-55555555--:
E:----------------------------------------------------------:
Related for Into The Rush tab