Song name
# A B C D E F G H I J K L M N O P Q R S T U V W X Y Z

Aly And Aj - Tears tab

Tuning: ( Half step = top to bottom D,G,C,F,A,d )

Tab functions:  p = Pause
                P.M. - Palmuted

 Lead and Background guitar

P.M.                                 
d-----------------------------------------------------|
A-----------------------------------------------------|
F--2-2p--2-2p----------------5-5p--5-5p---------------|
C--2-2p--2-2p---2-2p--2-2p---5-5p--5-5p---5-5p--5-5p--|
G--0-0p--0-0p---2-2p--2-2p---3-3p--3-3p---5-5p--5-5p--|
D---------------0-0p--0-0p----------------3-3p--3-3p--|

 
   ---          ---          ---         ----  
d------------------------------------------------------|
A------------------------------------------------------|
F------2p---2p-------------------5p---5p---------------|
C------2p---2p------2p---2p------5p---5p------5p---5p--|
G--0-0-0p---0p------2p---2p--3-3-3p---3p------5p---5p--|
D---------------0-0-0p---0p---------------3-3-3p---3p--|


 Lead and Background guitar

P.M.------------------------------------------------------------    ]
d-------------------------------------------------------------------]
A-------------------------------------------------------------------]
F--2-2-2-2-2-2-2-2-----------------5-5-5-5-5-5-5-5------------------] X2
C--2-2-2-2-2-2-2-2-2-2-2-2-2-2-2-2-5-5-5-5-5-5-5-5-5-5-5-5-5-5-5-5--]
G--0-0-0-0-0-0-0-0-2-2-2-2-2-2-2-2-3-3-3-3-3-3-3-3-5-5-5-5-5-5-5-5--]
D------------------0-0-0-0-0-0-0-0-----------------3-3-3-3-3-3-3-3--]

And then:

P.M.  --  --
d---------------]
A---------------]
F---------------]
C--3----3---3p--]
G--3----3---3p--]
D--1--0-1-0-1p--]

Their you have it, this just about the whole intro, if anyone can tab this whole song 
do so, i would appreaciate it.

Please rate my tab ^_^
Tap to rate this tab
# A B C D E F G H I J K L M N O P Q R S T U V W X Y Z