Song name
# A B C D E F G H I J K L M N O P Q R S T U V W X Y Z

Aly And Aj - Collapsed tab

-------------------------------------------------------------------------------
			     Collapsed - Aly and AJ
-------------------------------------------------------------------------------
Tabbed by:  bbro2312
Email:  wyliegosnell@Hotmail.com

Tuning: Standard

Okay so...First off this is my first tab.
It may not sound like it but its the tab for the song.
Listen to the song for the rythm.
if you have any qeustions pm me or send me and e-mail.

Intro/Verse x3
e|--------------------------------------------------------------------------|
B|--------------------------------------------------------------------------|
G|--------------------------------------------------------------------------|
D|-----------------------4-4------------------------------------------------|
A|--4--4--4--------4-4-4-2-2------------------------------------------------|
E|--6--6--6--0-0-0-2-2-2----------------------------------------------------|

Chorus x2
e|--------------------2-2-2-0-0-0-------------------------------------------|
B|--------------------2-2-2-0-0-0-------------------------------------------|
G|--------------------2-2-2-1-1-1-------------------------------------------|
D|-4-4-4--------------2-2-2-2-2-2-------------------------------------------|
A|-2-2-2-0-0-0-4-4-4--0-0-0-2-2-2-------------------------------------------|
E|-------------2-2-2--x-x-x-0-0-0-------------------------------------------|

Interlude x2
e|--------------------------------------------------------------------------|
B|--------------------------------------------------------------------------|
G|--------------------------------------------------------------------------|
D|-------4-4-4--------------------------------------------------------------|
A|-6-6-6-2-2-2-4-4-4--------------------------------------------------------|
E|-4-4-4-------2-2-2--------------------------------------------------------|

Enjoy!
Tap to rate this tab
# A B C D E F G H I J K L M N O P Q R S T U V W X Y Z