Song name
# A B C D E F G H I J K L M N O P Q R S T U V W X Y Z

Aly And Aj - Never Far Behind tab

Aly And Aj
Never Far Behind
Into The Rush
2005 Hollywood Records

Tunning: Standard EADGBe

* means harmonics


Intro:

Aly: Idle

Aj:
e|-----------0-|-----------0-------|---------0--|
B|-------0-----|-------4-0---4-2-0-|-----4------|
G|-----2---2---|-----6-------------|---4---4----|
D|---2---------|---6---------------|-2----------|
A|-0-----------|-4-----------------|------------|
E|-------------|-------------------|------------|
       x2

Piano:
e|----7--------|-9------|------7-|
B|-------------|----9---|-7------|
G|-------------|--------|--------|
D|-------------|--------|--------|
A|-------------|--------|--------|
E|-------------|--------|--------|


Verse 1:

Aly: will enter at 0:23
e|-----12*---------11---------12*---------11---------12*-----11------|
B|-12*-----12*-12*----12*-12*-----12*-12*----12*-12*-----12*-----12*-|
G|-------------------------------------------------------------------|
D|-------------------------------------------------------------------| (x4)
A|-------------------------------------------------------------------|
E|-------------------------------------------------------------------|

Aj: strum slighter
e|-0-----|--4---|-0---|
B|-0-----|--5---|-0---|
G|-2-----|--6---|-1---|
D|-2-----|--6---|-2---| (x2)
A|-0-----|--4---|-2---|
E|-------|------|-0---|

Piano:
e|----7--------|-9------|--------|
B|-------------|----9---|-10---9-|
G|-------------|--------|--------|
D|-------------|--------|--------|
A|-------------|--------|--------|
E|-------------|--------|--------|
then
e|----7--------|-9------|-17---16---14-|
B|-------------|----9---|--------------|
G|-------------|--------|--------------|
D|-------------|--------|--------------|
A|-------------|--------|--------------|
E|-------------|--------|--------------|


Refrain:

Aly:
e|---------------------------------|
B|---------------------------------|
G|-7-7-7-7-7-7-7-7-7-7-7-7-7-7-7-7-|
D|-7-7-7-7-7-7-7-7-7-7-7-7-7-7-7-7-|
A|-5-5-5-5-5-5-5-5-5-5-5-5-5-5-5-5-|
E|---------------------------------|

Aj:
e|---------------------------------|
B|-3-3-3-3-3-3-3-3-3-3-3-3-3-3-3-3-|
G|-2-2-2-2-2-2-2-2-2-2-2-2-2-2-2-2-|
D|-0-0-0-0-0-0-0-0-0-0-0-0-0-0-0-0-|
A|---------------------------------|
E|---------------------------------|

Piano:
e|-12--12-------------12--12-|
B|-10--10--------7----10--10-|
G|--9---9--9p8p7-------9---9-|
D|---------------------------|
A|---------------------------|
E|---------------------------|


Chorus:

Aly:
e|-------------------------|-----------------|-------------5*-|
B|-------------------------|-----------------|-10\9---7/9-----|
G|-11-11-11-11-11-11-11-11-|-9-9-9-9-9-9-9-9-|----------------|
D|-11-11-11-11-11-11-11-11-|-7-7-7-7-7-7-7-7-|----------------|
A|--9--9--9--9--9--9--9--9-|-7-7-7-7-7-7-7-7-|----------------|
E|-------------------------|-----------------|----------------|
then
e|-------------------------|-----------------|----------------|
B|-------------------------|-----------------|-5*--5*--5*-----|
G|-11-11-11-11-11-11-11-11-|-9-9-9-9-9-9-9-9-|-------------4--|
D|-11-11-11-11-11-11-11-11-|-7-7-7-7-7-7-7-7-|-------------4--|
A|--9--9--9--9--9--9--9--9-|-7-7-7-7-7-7-7-7-|-------------2--|
E|-------------------------|-----------------|----------------|
then
e|-----------------|------------|
B|-----------------|------------|
G|-6-6-6-6-6-6-6-6-|-9--9--9--9-|
D|-x-x-x-x-x-x-x-x-|-x--x--x--x-|
A|-4-4-4-4-4-4-4-4-|-7--7--7--7-|
E|-----------------|------------|

Aj:
e|-----------------|-----------------|------------------------|
B|-----------------|-----------------|------------------------|
G|-----------------|-----------------|------------------------|
D|-4-4-4-4-4-4-4-4-|-7-7-7-7-7-7-7-7-|-------------------9*---|
A|-4-4-4-4-4-4-4-4-|-7-7-7-7-7-7-7-7-|-7/9h11--9h11--7/9------|
E|-2-2-2-2-2-2-2-2-|-5-5-5-5-5-5-5-5-|-0/0-----0-----0/0------|
then
e|-----------------|-----------------|------------------------|
B|-----------------|-----------------|------------------------|
G|-----------------|-----------------|------------------------|
D|-4-4-4-4-4-4-4-4-|-7-7-7-7-7-7-7-7-|---------------9-9-9-9--|
A|-4-4-4-4-4-4-4-4-|-7-7-7-7-7-7-7-7-|-7/9h11--9h11--9-9-9-9--|
E|-2-2-2-2-2-2-2-2-|-5-5-5-5-5-5-5-5-|-0/0-----0-----7-7-7-7--|
then
e|-----------------|-------------|
B|-----------------|-0--0--0--0--|
G|-----------------|-2--2--2--2--|
D|-4-4-4-4-4-4-4-4-|-2--2--2--2--|
A|-4-4-4-4-4-4-4-4-|-0--0--0--0--|
E|-2-2-2-2-2-2-2-2-|-------------|

Piano:
e|-----12*---------11---------12*---------11---------12*-----11------|
B|-12*-----12*-12*----12*-12*-----12*-12*----12*-12*-----12*-----12*-|
G|-------------------------------------------------------------------|
D|-------------------------------------------------------------------| (x8)
A|-------------------------------------------------------------------|
E|-------------------------------------------------------------------|


Post Chorus:

Aly: at cool riff 1:08
e|---------------------------------------|---------------------------------------|
B|---------------------------------------|---------------------------------------|
G|---------------------------------------|---------------------------------------|
D|-14-14-14-13--14-14-14-13--14-13-11----|-11-11-11-----11-11-11-----14-13-11----|
A|------------------------------------14-|------------------------------------14-|
E|---------------------------------------|----------12-----------12--------------|
                    x2
then
e|---------------------------|
B|-----------------------12--|
G|-13-13-13-11--13----13-----|
D|-----------------14--------|
A|---------------------------|
E|---------------------------|

Aj: 1:08
e|------------------------4---4----------------|----------------------|
B|-0---0---0---0---0--0---5---5----------------|-0---0---0---0---0--0-|
G|-2---2---2---2---2--2---6---6---1---1---1--1-|-2---2---2---2---2--2-|
D|-2---2---2---2---2--2---6---6---2---2---2--2-|-2---2---2---2---2--2-|
A|-0---0---0---0---0--0---4---4---2---2---2--2-|-0---0---0---0---0--0-|
E|--------------------------------0---0---0--0-|----------------------|
then
e|---------------------|
B|---------------------|
G|-6---6---9---9---9-9-|
D|-6---6---9---9---9-9-|
A|-4---4---7---7---7-7-|
E|---------------------|

Piano: Idle


Verse 2:

Aly:
e|-------------------------|------------------------5*----|
B|-7--0-7--0-5--0-5--0-5-0-|-0-9--0-9--0-7-----0-5-----5*-|
G|-------------------------|------------------------------|
D|-------------------------|------------------------------|
A|-------------------------|------------------------------|
E|-------------------------|------------------------------|
             x2
then
e|--------------------|---------------5*-4*----|
B|-0-9--0-9--0-7--0-5-|---------------------5*-|
G|--------------------|------------------------|
D|--------------------|---6----9---------------|
A|--------------------|-4----7---12------------|
E|--------------------|------------------------|
            x3

Aj: strum slighter
e|-0-----|--4---|-0---|
B|-0-----|--5---|-0---|
G|-2-----|--6---|-1---|
D|-2-----|--6---|-2---| (x2)
A|-0-----|--4---|-2---|
E|-------|------|-0---|

Piano:
e|----7--------|-9------|------------|
B|-------------|----9---|-7---10---9-|
G|-------------|--------|------------|
D|-------------|--------|------------|
A|-------------|--------|------------|
E|-------------|--------|------------|
then
e|----7--------|-9------|-------------|
B|-------------|----9---|-10---9---7--|
G|-------------|--------|-------------|
D|-------------|--------|-------------|
A|-------------|--------|-------------|
E|-------------|--------|-------------|

(Refrain and Chorus 1 except Post Chorus)


Bridge: Na na na na...

Aly:
e|-----------------|-----------------|-----------------|-----------------|
B|-----------------|-----------------|-----------------|-----------------|
G|-6-6-6-6-6-6-6-6-|-9-9-9-9-9-9-9-9-|-6-6-6-6-6-6-6-6-|-----------------|
D|-x-x-x-x-x-x-x-x-|-x-x-x-x-x-x-x-x-|-x-x-x-x-x-x-x-x-|-2-2-2-2-2-2-2-2-|
A|-4-4-4-4-4-4-4-4-|-7-7-7-7-7-7-7-7-|-4-4-4-4-4-4-4-4-|-2-2-2-2-2-2-2-2-|
E|-----------------|-----------------|-----------------|-0-0-0-0-0-0-0-0-|
then
e|---------------------------------|
B|---------------------------------|
G|-7-7-7-7-7-7-7-7-7-7-7-7-7-7-7-7-|
D|-7-7-7-7-7-7-7-7-7-7-7-7-7-7-7-7-|
A|-5-5-5-5-5-5-5-5-5-5-5-5-5-5-5-5-|
E|---------------------------------|

Aj:
e|-2-2-2-2-2-2-2-2-|-----------------|-4-4-4-4-4-4-4-4-|-12\11----------|
B|-2-2-2-2-2-2-2-2-|-0-0-0-0-0-0-0-0-|-5-5-5-5-5-5-5-5-|-------12/14----|
G|-2-2-2-2-2-2-2-2-|-2-2-2-2-2-2-2-2-|-6-6-6-6-6-6-6-6-|-------------13-|
D|-4-4-4-4-4-4-4-4-|-2-2-2-2-2-2-2-2-|-6-6-6-6-6-6-6-6-|----------------|
A|-4-4-4-4-4-4-4-4-|-0-0-0-0-0-0-0-0-|-4-4-4-4-4-4-4-4-|----------------|
E|-2-2-2-2-2-2-2-2-|-----------------|-----------------|----------------|
then
e|---------------------------------|
B|-3-3-3-3-3-3-3-3-3-3-3-3-3-3-3-3-|
G|-2-2-2-2-2-2-2-2-2-2-2-2-2-2-2-2-|
D|-0-0-0-0-0-0-0-0-0-0-0-0-0-0-0-0-|
A|---------------------------------|
E|---------------------------------|

Piano:
e|-14--------|-14--------|-14-12----|
B|------9-10-|------10-9-|-------12-|
G|-----------|-----------|----------|
D|-----------|-----------|----------|
A|-----------|-----------|----------|
E|-----------|-----------|----------|
      x2


Chorus 2:

Aly: 2:35
e|-5*-------4*-------5*-------4*-------5*----4*----|
B|----5*-5*----5*-5*----5*-5*----5*-5*----5*----5*-|
G|-------------------------------------------------|
D|-------------------------------------------------|
A|-------------------------------------------------|
E|-------------------------------------------------|

Aj: Let Ring
e|-----|-0-----|-0-----|----|
B|-2---|-0-0---|-0-0---|-4--|
G|-2---|-2---1-|-1---1-|-4--|
D|-4---|-2-----|-2-----|-4--|
A|-----|-0-----|-2-----|----|
E|-----|-------|-0-----|----|

Piano:
e|-9---|-------|-7-----|----|
B|-----|-7*----|-------|-7--|
G|-----|-------|-------|----|
D|-----|-------|-------|----|
A|-----|-------|-------|----|
E|-----|-------|-------|----|

(Then Repeat the rest of the Chorus 1 until pre-chorus)
_______________________________________________________________________________________


Chords used:

          A9
I know this really isn't you I know your heart is somewhere else
              C#,                      E
And I'll do anything I can To help you break out of the spell
          A9
I see you follow in the crowd I know you're trying to fit in
              C#m                     E
But if you're gonna find yourself You gotta start from deep, deep within


REfrain:
D
Hold on to what you believe


Chorus:
F#m                   A9                          E
I will always be your friend I know who you are inside
                                       F#m
I am with you 'til the end Never Far Behind
                        A9                      E
I am standing in the distance You can take your time
                   B                   F#m
And I will be here waiting Never Far Behind
    A9
Yeah Never Far Behind


Post Chorus: A9----C#m-E-A9----C#m-E


Verse 2:
       A9
I am sending you a message Don't ever think that it's too late
         C#m                         E
When you care about someone there is always room for change
       A9
Your allowed to make mistakes Its apart of every life
        C#m                                E
I don't see you any different The truth is shining in your eyes


(Repeat Refrain and Chorus)


Bridge:
F#m                  A9
Na na na na na na na na na na na na na na na na
                   C#m
(You can take your time) na na na na na na na na
E                              D
Na na Na na na na na na (And i know with all my heart)


Chorus 2:
F#m                   A9                          E
I will always be your friend I know who you are inside
                       B
I am with you 'till the end never far behind
F#m                     A9                      E
I am standing in the distance You can take your time
                   B                     F#m
And I will be here waiting Waiting by my side
   A9
God is never far behind


(Repeat Post chorus)


Outro:
     A9
I am sending you a message
Tap to rate this tab
# A B C D E F G H I J K L M N O P Q R S T U V W X Y Z