Guitaretab - guitar tabs
Song name
# A B C D E F G H I J K L M N O P Q R S T U V W X Y Z

Aly And Aj - Collapsed tab

Collapsed
Aly and Aj
Into the Rush
Submitted by: paramore_fans@yahoo.com

Tuning: Drop D on both Aly and Aj's Guitar, Guitar 3


Intro:

Aly: Idle

Aj:
e|------------------------------|
B|------------------------------|
G|------------------------------|
D|-6-6--6\2-2--2/4-4--4-9-9-8-8-|
A|-6-6--6\2-2--2/4-4--4-9-9-9-9-|
D|-6-6--6\2-2--2/4-4--4-9-9-8-8-|

Guitar 3:
e|---------------------2-----------|
B|-2-0-2-0-2-0-2-0-2-0---0-4-0---0-|
G|-----------------------------3---|
D|---------------------------------|
A|---------------------------------|
D|---------------------------------|


Verses: Volume loudens

Aly:
e|-------------------------------------|
B|-------------------------------------|
G|-------------------------------------|
D|----9------9------11----9---8--------|
A|-11----6-7----7-9-----9---------  ---|
D|--------------------------------  ---|
                                     |-(x2)
e|--------------------------------  ---|
B|--------------------------------  ---|
G|-------------------------------------|
D|----13------9------11----9---8-------|
A|-11-----6-7----7-9-----9-------------|
D|-------------------------------------|

Aj: Palm mute here
e|------------------------------|
B|------------------------------|
G|------------------------------|
D|-6-6--6\2-2--2/4-4--4-9-9-8-8-| (x4)
A|-6-6--6\2-2--2/4-4--4-9-9-9-9-|
D|-6-6--6\2-2--2/4-4--4-9-9-8-8-|

Guitar 3: at 0:24
e|---------------------2-----------|
B|-2-0-2-0-2-0-2-0-2-0---0-4-0---0-|
G|-----------------------------3---|
D|---------------------------------|
A|---------------------------------|
D|---------------------------------|


Refrain:

Aly: x means palm mute
e|---------------------------------|
B|---------------------------------|
G|-4-----4-----4-----4-----4---4---|
D|-x-----x-----x-----x-----x---x---| (x3)
A|-2-x-x-2-x-x-2-x-x-2-x-x-2-x-2-x-|
D|---------------------------------|

Aj: still palm mute
e|---------------------------------|
B|---------------------------------|
G|---------------------------------|
D|-6-6-6-6-2-2-2-2-4-4-4-4-9-9-8-8-| (x3)
A|-6-6-6-6-2-2-2-2-4-4-4-4-9-9-9-9-|
D|-6-6-6-6-2-2-2-2-4-4-4-4-9-9-8-8-|

Guitar 3:
e|---------------------2-----------|
B|-2-0-2-0-2-0-2-0-2-0---0-4-0---0-|
G|-----------------------------3---|
D|---------------------------------|
A|---------------------------------|
D|---------------------------------|

Aly: From right to wrong
e|----7~---14-12\11-----|
B|----7~------------12--|
G|----6~----------------|
D|----7~----------------|
A|----------------------|
D|----------------------|

Aj:
e|---------------------------------|
B|---------------------------------|
G|---------------------------------|
D|-7-7-7-7-7-7-7-7-2-2-2-2-2-2-2-2-|
A|-7-7-7-7-7-7-7-7-2-2-2-2-2-2-2-2-|
D|-7-7-7-7-7-7-7-7-2-2-2-2-2-2-2-2-|

Guitar 3:
e|--12-11-----12-11-----7h9p7h9p7h9p7h9\2--|
B|--------12--------12------------------0--|
G|-----------------------------------------|
D|-----------------------------------------|
A|-----------------------------------------|
D|-----------------------------------------|


Chorus: Guitar 3 is idle here

Aly: If I... knew that you were mine
e|-------------------------14-12-11-------|
B|----------------------13----------12----|
G|-8-8-8-8-9-9-9-9---11----------------11-|
D|-9-9-9-9-9-9-9-9-9----------------------|
A|-6-6-6-6-7-7-7-7------------------------|
D|----------------------------------------|

Aj: Distortion starts
e|---------------------------------|
B|---------------------------------|
G|---------------------------------|
D|-1-1-1-1-2-2-2-2-9-9-9-9-4-4-4-4-|
A|-2-2-2-2-2-2-2-2-9-9-9-9-4-4-4-4-|
D|-1-1-1-1-2-2-2-2-9-9-9-9-4-4-4-4-|

Aly: If I... wouldn't have wasted time (* means harmonics)
e|--------------------------------------|
B|--------------------------------------|
G|-8-8-8-8-9-9-9-9------11-9-8----------|
D|-9-9-9-9-9-9-9-9----9--------11---9*--|
A|-6-6-6-6-7-7-7-7-11-------------9-----|
D|--------------------------------------|
[ Tab from: http://www.guitaretab.com/a/aly-and-aj/68671.html ]
Aj:
e|---------------------------------|
B|---------------------------------|
G|---------------------------------|
D|-1-1-1-1-2-2-2-2-6-6-6-6-4-4-4-4-|
A|-2-2-2-2-2-2-2-2-6-6-6-6-4-4-4-4-|
D|-1-1-1-1-2-2-2-2-6-6-6-6-4-4-4-4-|

Aly: I wish I could erase the past
e|----------------------------12-11----------|
B|------12--------------------------12----12-|
G|---11----11-----9--------11----------11----|
D|-9------------9---9----9-------------------|
A|-9----------7-------11---------------------|
D|-9-----------------------------------------|

Aj;
e|---------------------------------|
B|---------------------------------|
G|---------------------------------|
D|-9-9-9-9-2-2-2-2-9-9-9-9-4-4-4-4-|
A|-9-9-9-9-2-2-2-2-9-9-9-9-4-4-4-4-|
E|-9-9-9-9-2-2-2-2-9-9-9-9-4-4-4-4-|

Aly:
e|---------------------|
B|---------------------|
G|-8-8-8-8-9-9-9-9-13--|
D|-9-9-9-9-9-9-9-9-13--|
A|-6-6-6-6-7-7-7-7-11--|
D|---------------------|

Aj:
e|-------------------|
B|-------------------|
G|-------------------|
D|-1-1-1-1-2-2-2-2-6-|
A|-2-2-2-2-2-2-2-2-6-|
D|-1-1-1-1-2-2-2-2-6-|

Interlude: Same riffs as verses and x2 only

(Repeat Verses, Refrain and Chorus)

Bridge:

Aly: My mind is blank just like a clean slate...
e|----14-14-14-14-14-14--|
B|----12-12-12-12-12-12--|
G|-----9--9--9--9--9--9--|
D|-----------------------| (x4)
A|-----------------------|
D|-----------------------|

Aj:
e|---------------------------------|
B|---------------------------------|
G|---------------------------------|
D|-6-6-6--6-9-9-9--9-4-4-4-1/4-4-4-| (x3)
A|-6-6-6--6-9-9-9--9-4-4-4-1/4-4-4-|
D|-6-6-6--6-9-9-9--9-4-4-4-1/4-4-4-|

Aj: Fake
e|---------------|
B|---------------|
G|---------------|
D|-6-6-6-9-9-9-4-|
A|-6-6-6-9-9-9-4-|
D|-6-6-6-9-9-9-4-|

Aly: Wish I could go back:
e|-------11-------11-----------11-------11------|
B|----12-------12-----------12-------12---------|
G|-11-------11---------11---------11---------11-|
D|-------------------9----9----------------9----| (x2)
A|----------------------------------------------|
D|----------------------------------------------|

Aj:
e|-----------|
B|-----------|
G|-----------|
D|-1--2--4---| (x2)
A|-2--2--4---|
D|-1--2--4---|

Guitar 3:
e|-2--4--7---|
B|-----------|
G|-----------|
D|-----------| (x2)
A|-----------|
D|-1--2--4---|

(Repeat Chorus twice)



Chords used: Drop D tuning only
G#5   -   666xxx
E5    -   222xxx
F#5   -   444xxx
B5    -   999xxx
B/Bb  -   898xxx
B/D#  -   121xxx
A5    -   777xxx

Intro: G#5-E5-F#5-B5-B/Bb (x2)

Verse 1:
G#5 E5           F#5 B5-B/Bb
    You were the one
G#5      E5         F#5 B-Bb
    That I couldnít find
G#5 E5      F#5 B-B/Bb
    Hidden away
G#5        E5           F#5  B-Bb
    In the depths of my mind


Pre Chorus:
G#5         E5                F#5            B5  B/Bb
  Why did I let you go youíre too good to be true
G#5           E5           F#5                B5 B/Bb
  I messed it up and now I donít know what to do
G#5          E5          F#5    B5  B/Bb
  We were in circles and wasted time
       A5                  E5
  from right to wrong from right to wrong


Chorus:
   B/D#-E5 B5                 F#5
If I       knew that you were mine
  B/D#-E5                G#5    F#5
I          wouldnít have wasted time
B5-E5              B5        F#5
I     wish I could erase the past
B/D#     E5     G#5    (Break)
Now itís all collapse in my lap


Interlude: G#5-E5-F#5-B5-B/Bb


Verse 2:
G#5  E5     F#5    B5-B/Bb
     I over thought
G#5       E5           F#5    B5-B/Bb
     So I locked up my heart (yeah)
G#m E5         F#5  B-Bb/B
     There you stood
G#5       E5        F#5                 B5-B/Bb
     Your blue eyes Hidden beneath your hood

(Repeat Refrain then chorus)


Bridge: Sing fast here!!!
   G#5                       B5
My mind is blank just like a clean slate
       F#5
Will I meet another guy with the same blue eyes
       G#5                 B5
and the same name with the converse shoes i gave
F#5                                                  G#5
will he have the same laugh, wear my homemade hat bet
           B5                 F#5                     G#5-B5
i'll make another mistake and think he's just another
F#5
fake.
B/D# E5 F#5
wish i  could erase the past now
B/D# E5 F#5
wish i  could bring you back

(Repeat Chorus twice)
Related for Collapsed tab