Song name
# A B C D E F G H I J K L M N O P Q R S T U V W X Y Z

Aly And Aj - Potential Breakup Song tab

Aly & AJ
Potential Breakup Song
Submitted by: kaluss@onet.eu

Videos how I play this:

AJ part:   http://pl.youtube.com/watch?v=Ddhkq6rJdwA
Aly Part:  http://pl.youtube.com/watch?v=3q29IO3tctU


Tuning: Standard EADGBe


Intro (Aly Part): 

e ---------------------------------------------|
B ---------------------------------------------|
G --------------------7`-----7-6`-----6-4------|
D --4`-----4-7`-----7-7`-----7-6`-----6-4-7-6--|
A --4`-----4-7`-----7-5`-----5-4`-----4-2-7-6--|
E --2`-----2-5`-----5---------------------5-4--|



Intro (AJ Part):

e --2--2--2--2--2--4--5--5--5--5--5--4--2--2--2--2--2---2-1--1--1-----1-1-1-1-|
B ---2--2--2--2--2------2--2--2--2--2----2--2--2--2--2-----2--2--2----2-2-2-2-|
G ----------------------------------------------------------------------------|
D ----------------------------------------------------------------------------|
A ----------------------------------------------------------------------------|
E ----------------------------------------------------------------------------|


Verse: (It took to long...stupid birthday)

e --------------------------------------------------------------------------------|
B --------------------------------------------------------------------------------|
G --------------------------------------------------7-x-7-7-7-7-7-x-7-7-7-7--6-6--|
D --4-x-4-4-4-4-4-x-4-4-4-4-7-x-7-7-7-7-7-x-7-7-7-7-7-x-7-7-7-7-7-x-7-7-7-7--6-6--|
A --4-x-4-4-4-4-4-x-4-4-4-4-7-x-7-7-7-7-7-x-7-7-7-7-5-x-5-5-5-5-5-x-5-5-5-5--4-4--|
E --2-x-2-2-2-2-2-x-2-2-2-2-5-x-5-5-5-5-5-x-5-5-5-5-------------------------------|


(I played along...who would forget that?)

e -------------------------------------------------------------------------------------------------|
B -------------------------------------------------------------------------------------------------|
G --------------------------------------------------7-x-7-7-7-7-7-x-7-7-7-7-6-x-6-6-6-6-6-x-6-6-6-6|
D --4-x-4-4-4-4-4-x-4-4-4-4-7-x-7-7-7-7-7-x-7-7-7-7-7-x-7-7-7-7-7-x-7-7-7-7-6-x-6-6-6-6-6-x-6-6-6-6|
A --4-x-4-4-4-4-4-x-4-4-4-4-7-x-7-7-7-7-7-x-7-7-7-7-5-x-5-5-5-5-5-x-5-5-5-5-4-x-4-4-4-4-4-x-4-4-4-4|
E --2-x-2-2-2-2-2-x-2-2-2-2-5-x-5-5-5-5-5-x-5-5-5-5------------------------------------------------|


(The type of guy...soon you will know)

e -------------------------------------------------------------------------------------------------|
B -------------------------------------------------------------------------------------------------|
G --------------------------------------------------7-x-7-7-7-7-7-x-7-7-7-7-6-x-6-6-6-6-6-x-6-6-6-6|
D --4-x-4-4-4-4-4-x-4-4-4-4-7-x-7-7-7-7-7-x-7-7-7-7-7-x-7-7-7-7-7-x-7-7-7-7-6-x-6-6-6-6-6-x-6-6-6-6|
A --4-x-4-4-4-4-4-x-4-4-4-4-7-x-7-7-7-7-7-x-7-7-7-7-5-x-5-5-5-5-5-x-5-5-5-5-4-x-4-4-4-4-4-x-4-4-4-4|
E --2-x-2-2-2-2-2-x-2-2-2-2-5-x-5-5-5-5-5-x-5-5-5-5------------------------------------------------|

e -----------|
B -----------|
G --6-4------|
D --6-4-7-6--|
A --4-2-7-6--|
E ------5-4--|



Chorus: (You're not livin'...please tell me)

Aly Part

e -------------------------------------------------------------------------------------------------|
B -------------------------------------------------------------------------------------------------|
G --------------------------------------------------7-x-7-7-7-7-7-x-7-7-7-7-6-x-6-6-6-6-6-x-6-6-6-6|
D --4-x-4-4-4-4-4-x-4-4-4-4-7-x-7-7-7-7-7-x-7-7-7-7-7-x-7-7-7-7-7-x-7-7-7-7-6-x-6-6-6-6-6-x-6-6-6-6|
A --4-x-4-4-4-4-4-x-4-4-4-4-7-x-7-7-7-7-7-x-7-7-7-7-5-x-5-5-5-5-5-x-5-5-5-5-4-x-4-4-4-4-4-x-4-4-4-4|
E --2-x-2-2-2-2-2-x-2-2-2-2-5-x-5-5-5-5-5-x-5-5-5-5------------------------------------------------|
x3


e -----------|
B -----------|
G --6-4------|
D --6-4-7-6--|
A --4-2-7-6--|
E ------5-4--|

AJ Part

e --2--2--2--2--2--4--5--5--5--5--5--4--2--2--2--2--2---2-1--1--1---|
B ---2--2--2--2--2------2--2--2--2--2----2--2--2--2--2-----2--2--2--|
G ------------------------------------------------------------------|     x3
D ------------------------------------------------------------------|
A ------------------------------------------------------------------|
E ------------------------------------------------------------------|

e --1-1-1-1--|
B --2-2-2-2--|
G -----------|
D -----------|
A -----------|
E -----------|


Verse 2: (We got along...)


e -------------------------------------------------------------------------------------------------|
B -------------------------------------------------------------------------------------------------|
G --------------------------------------------------7-x-7-7-7-7-7-x-7-7-7-7-6-x-6-6-6-6-6-x-6-6-6-6|
D --4-x-4-4-4-4-4-x-4-4-4-4-7-x-7-7-7-7-7-x-7-7-7-7-7-x-7-7-7-7-7-x-7-7-7-7-6-x-6-6-6-6-6-x-6-6-6-6|
A --4-x-4-4-4-4-4-x-4-4-4-4-7-x-7-7-7-7-7-x-7-7-7-7-5-x-5-5-5-5-5-x-5-5-5-5-4-x-4-4-4-4-4-x-4-4-4-4|
E --2-x-2-2-2-2-2-x-2-2-2-2-5-x-5-5-5-5-5-x-5-5-5-5------------------------------------------------|


(You can send it...soon you will know)

e -------------------------------------------------------------------------------------------------|
B -------------------------------------------------------------------------------------------------|
G --------------------------------------------------7-x-7-7-7-7-7-x-7-7-7-7-6-x-6-6-6-6-6-x-6-6-6-6|
D --4-x-4-4-4-4-4-x-4-4-4-4-7-x-7-7-7-7-7-x-7-7-7-7-7-x-7-7-7-7-7-x-7-7-7-7-6-x-6-6-6-6-6-x-6-6-6-6|
A --4-x-4-4-4-4-4-x-4-4-4-4-7-x-7-7-7-7-7-x-7-7-7-7-5-x-5-5-5-5-5-x-5-5-5-5-4-x-4-4-4-4-4-x-4-4-4-4|
E --2-x-2-2-2-2-2-x-2-2-2-2-5-x-5-5-5-5-5-x-5-5-5-5------------------------------------------------|

e -----------|
B -----------|
G --6-4------|
D --6-4-7-6--|
A --4-2-7-6--|
E ------5-4--|



Chorus:

The same


Bridge: (you can try...dearly, c'mon)

Aly Part

e ---------------------------------------------------|
B ---------------------------------------------------|
G --7-7-7-7-7-7-6-6-6-6-6-6-9-9-9-9-9-9-7-7-7-7-7-7--|
D --7-7-7-7-7-7-6-6-6-6-6-6-9-9-9-9-9-9-7-7-7-7-7-7--|
A --5-5-5-5-5-5-4-4-4-4-4-4-7-7-7-7-7-7-5-5-5-5-5-5--|
E ---------------------------------------------------|

AJ Part

e --7--5--4--5-7-5-7--5--4--5-7-5-7--5--4--5-7-5-7--7--7--7-7--|
B -------------------------------------------------------------|
G -------------------------------------------------------------|
D -------------------------------------------------------------|
A -------------------------------------------------------------|
E -------------------------------------------------------------|

Chorus x2


Outro:

e ------------------|
B ------------------|
G --6-4-------------|
D --6-4-7-6-4`---4--|
A --4-2-7-6-4`---4--|
E ------5-4-2`---2--|


Please rate and comment :D:D:D
Tap to rate this tab
# A B C D E F G H I J K L M N O P Q R S T U V W X Y Z