Song name
# A B C D E F G H I J K L M N O P Q R S T U V W X Y Z

Aly And Aj - Division tab

This is one of my first tabs...i taught myself how to play only 4 months ago...
i used this video for reference....I'm almost 100% sure its correct

http://youtube.com/watch?v=ipLbOeyiZYg&feature=related

This is only Aly's part
Standard Tuning
Listen for strumming

Intro
E--------------------------------|
B--------------------------------|
G-----------------7--------------|
D-7------4--------7--------7-----|
A-7(x12)--4(x12)--5(x12)---7(x12-|
E-5-------2----------------5-----|

Verses
You chose to surrender....
You chose our division
E--------------------------------------------------------|
B--------------------------------------------------------|
G-----------------7-------------------------7------------|
D-7-------4-------7-------7---------4------7-------4-----|
A-7(x12)--4(x12)--5(x12)--7(x24)----4(x12)-5(X12)-4 (x12-|
E-5-------2---------------5---------2--------------2-----|

Oooh and I have no regrets...
In all that you do
E-----------------------------------------|
B-----------------------------------------|
G----------7----------------6-------------|
D-4--------7--------7-------6-------------|
A-4(X12)---5(X12)--7(x12)---4 (x12)-------|
E-2-----------------5---------------------|

Chorus
Congratulations...
This is your last separation from me
E--------------------------------------|
B--------------------------------------|
G--------------7-----------------------|       Play this twice
D-5------------7-----------7-----------|
A-5 (X4) REST-5 (X4) REST-7------------| (x8)
E-3 ------------------------5----------|

There'll be no more trying....
No more thinking that
E--------------------------------|
B--------------------------------|
G--------------7-----------------|
D-5------------7-----------7-----|
A-5 (X4)-------5 (X4) ------7----| (x8)
E-3 ------------------------5----|

Somehow the sum will be different by using division
E------------------------------|
B------------------------------|
G--------------7---------------|
D-5------------7---------------|
A-5 (X4)-------5 (hold) -------|
E-3 ---------------------------|

Verse 2
E--------------------------------|
B--------------------------------|
G-----------------7--------------|
D-7------4--------7--------7-----|
A-7(x12)--4(x12)--5(x12)---7(x12-|
E-5-------2----------------5-----|

Half of your friends would attend...
Well how about never?
E--------------------------------------------------------|
B--------------------------------------------------------|
G-----------------7-------------------------7------------|
D-7-------4-------7-------7---------4------7-------4-----|
A-7(x12)--4(x12)--5(x12)--7(x24)----4(x12)-5(X12)-4 (x12-|
E-5-------2---------------5---------2--------------2-----|

Ooooh, your gonna miss me grad...
you did this to you ya you did
E-----------------------------------------|
B-----------------------------------------|
G----------7----------------6-------------|
D-4--------7--------7-------6-------------|
A-4(X12)---5(X12)--7(x12)---4 (x12)-------|
E-2-----------------5---------------------|

Chorus
Congratulations...
This is your last separation from me
E--------------------------------------|
B--------------------------------------|
G--------------7-----------------------|       Play this twice
D-5------------7-----------7-----------|
A-5 (X4) REST-5 (X4) REST-7------------| (x8)
E-3 ------------------------5----------|

There'll be no more trying....
No more thinking that
E--------------------------------|
B--------------------------------|
G--------------7-----------------|
D-5------------7-----------7-----|
A-5 (X4)-------5 (X4) ------7----| (x8)
E-3 ------------------------5----|

Somehow the sum will be different by using division
E------------------------------|
B------------------------------|
G--------------7---------------|
D-5------------7---------------|
A-5 (X4)-------5 (hold) -------|
E-3 ---------------------------|

Congratulations
Farewell, farewell, farewell, farewell well well well ...
E-------------------------------------------|
B-------------------------------------------|
G----------------------7--------------------|
D-7------4------5------7 (X8)   PLAY THIS 3-|
A-7 (X8)-4 (X8)-5 (X8)-5--------------------|
E-5------2------3---------------------------|

Congratulations yeah yeah yeah
E--------------------------------|
B--------------------------------|
G--------------7-----------------|
D-5------------7-----------7-----|
A-5 (X4) REST-5 (X4) REST-7------|
E-3 ------------------------5----|


Good Luck! Let me no if u see anything wrong
Tap to rate this tab
# A B C D E F G H I J K L M N O P Q R S T U V W X Y Z