Guitaretab - guitar tabs
Song name
# A B C D E F G H I J K L M N O P Q R S T U V W X Y Z

Aly And Aj - If I Could Have You Back tab

-------------------------------------------------------------------------------
			     If I Could Have You Back - Aly and A.J.
-------------------------------------------------------------------------------
Tabbed by:Miko Del
Email:HANGINGJUDGE in the GMAIL domain

Tuning: A=440Hz, standard
INTRO
e|---------------------------------------------------------------------------|
B|---------------------------------------------------------------------------|
G|--------4---4---4---4---4-----6---4---6---4---6----------------------------|
D|--------7---4---7---4---7-----4---4---4---4---4----------------------------|
A|---------------------------------------------------------------------------|
E|---------------------------------------------------------------------------|

Verse
e|---------------------------------------------------------------------------|
B|---------------------------------------------------------------------------|
G|---4---4---4---4---4-----6---4---6---4---6-----4---4---4---4---4---4-------|
D|---7---4---7---4---7-----4---4---4---4---4-----7---4---7---4---7---4-------|
A|---------------------------------------------------------------------------|
E|---------------------------------------------------------------------------|

chorus
e|---------------------------------------------------------------------------|
B|---------------------------------------------------------------------------|
G|--------------------------------------------------------x--3---------------|
D|-------4---8---6--------4---8---6---4-------------------x--4---6---4-------|
A|---4---2---6---4---4----2---6---4---2--------------------------4---2-------|
E|---2---------------2-------------------0--2--0--2--0--2--------------------|
[ Tab from: http://www.guitaretab.com/a/aly-and-aj/93819.html ]
e|---------------------------------------------------------------------------|
B|---------------------------------------------------------------------------|
G|---------------------------------------------------------------------------|
D|-----------------------6--/-9----------------------------------------------|
A|-----------------------4--/-7----------------------------------------------|
E|----0--2--0--2--0--2-----------0--2--0--2--0--2----------------------------|

middle break
e|---------------------------------------------------------------------------|
B|---------------------------------------------------------------------------|
G|-----6---6---6---6---------------------------------------------------------|
D|-----7---4---7---4---------------------------------------------------------|
A|---------------------------------------------------------------------------|
E|---------------------------------------------------------------------------|

Last chorus (play twice)
e|---------------------------------------------------------------------------|
B|---------------------------------------------------------/--11-------------|
G|---------------------------------------------------------/--11-------------|
D|-------4---8---6--------4---8---6---4---------------------------6---4------|
A|---4---2---6---4---4----2---6---4---2---------------------------4---2------|
E|---2---------------2-------------------0--2--0--2--0--2--------------------|

e|---------------------------------------------------------------------------|
B|---------------------------------------------------------------------------|
G|---------------------------------------------------------------------------|
D|----------------------6--/-9----------------------11-\-6--------------------|
A|----------------------4--/-7----------------------9--\-4--------------------|
E|---0--2--0--2--0--2-----------0--2--0--2--0--2-----------0--2--0--2--0--2--|

e|---------------------------------------------------------------------------|
B|---------------------------------------------------------------------------|
G|---------------------------------------------------------------------------|
D|---------------------------------------------------------------------------|
A|---------------------------------------------------------------------------|
E|---------------------------------------------------------------------------|


| /  slide up
| \  slide down
| h  hammer-on
| p  pull-off
| ~  vibrato
| +  harmonic
| x  Mute note
===============================================================================
Related for If I Could Have You Back tab
Advertisement will be closed in 10 seconds