Song name
# A B C D E F G H I J K L M N O P Q R S T U V W X Y Z

Aly And Aj - Zipadeedoodah tab

Help us improve GuitareTab! Take a short survey!
Highlighted       Show chord diagrams
Aly and Aj
Zip-A-Dee-Do-Dah
2004 Demo
Submitted by: paramore_fans@yahoo.com

Key: G# then E

Chords used:
G# -  466444
C# -  x46664
Bb -  x13331 or 688766
Eb -  x68886
G#7 - 464674
E -   022100
A -   x02220
F# -  244322
B -   x24442


Intro: G#--C#-G#-C#-G#-Bb-Eb-G#--C#-G#-C#-G#-Eb-G#-G#7

Guitar 2:
e|---------4--1---1----4--4--1---------------|
B|-1-1-2-4------2---4----------4-----1---1---|
G|-------------------------------1-1---1---3-|
D|-------------------------------------------|
A|-------------------------------------------|
E|-------------------------------------------|
then
e|---------4--1---1----------8-----6-------------------|
B|-1-2-2-4------2---4--6-8-9----9----6-8-9--7--6-4-1---|
G|---------------------------------------------------1-|
D|-----------------------------------------------------|
A|-----------------------------------------------------|
E|-----------------------------------------------------|


Verse 1:
G#               C#       G#
Zip-A-Dee-Do-Da ,Zippadee-ay
C#    G#         Bb        Eb
My oh my, What a wonderful day
G#                  C#         G#
plenty of sunshine, Heading my way
C#        G#     Eb      G#
Zip-A-Dee-Do-Da, Zipadee-ay


Chorus 1:
    Eb               G#
Mr. Bluebird's on my shoulder
         Bb
It's the truth, It's factual
Eb
Everything is satisfactual
G#               C#       G#
Zip-A-Dee-Do-Da, Zippadee-ay
C#        G#       Eb        G#
Wonderful feeling, Wonderful day
G#7
Yeah


(Repeat all)


Solo: Modulate down from G# to E

Guitar 1: E--A-E-A-E-F#-B-E--A-E-A-E-B-E

Guitar 2:
e|-----------12--9----9-----12--12--9--------------------------|
B|-9-9-10-12-------10---12------------12-----9---9-------------|
G|---------------------------------------9-9---9---11-9-8------|
D|--------------------------------------------------------11-9-|
A|-------------------------------------------------------------|
E|-------------------------------------------------------------|
then
e|-----------12--9----9--------------16------14----11-12-13-14-15-16-|
B|-9-9-10-12-------10---12--14-16-17-----17-----14-------------------|
G|-------------------------------------------------------------------|
D|-------------------------------------------------------------------|
A|-------------------------------------------------------------------|
E|-------------------------------------------------------------------|


Bridge: Modulate back to G#
G#              G#7
Zip-A-Dee-Do-Da
G#              G#7
Zip-A-Dee-Do-Da


Chorus 2:
    Eb               G#
Mr. Bluebird's on my shoulder
         Bb
It's the truth, It's factual
Eb(hold)
  Everything is satisfactual
Eb(hold)
  Everything is satisfactual
Eb(hold)
  Everything is satisfactual


(Repeat Verse 1)


Outro:
G#7
Wonderful feeling, Wonderful day ~ (x6 )
Related for Zipadeedoodah tab