Song name
# A B C D E F G H I J K L M N O P Q R S T U V W X Y Z

Alyria - Quick To Move tab

Help us improve GuitareTab! Take a short survey!
http://www.myspace.com/alyriamusic

I don't know if they are signed or not but whatever

Alyria - Quick To Move
Tab: Billybusa (me)
Tuning: Drop D

E||-------|----------------------------------|
B||-------|----------------------------------|
G||-------|----------------------------------|
D||-------|----------------------------------|
A||-------|--4-4-4-4-4-4-4-------4-4-4-4-4-4-|
D||-------|--4-4-4-4-4-4-4-x-x-x-4-4-4-4-4-4-|

----------------------------------|----------------------------------|
----------------------------------|----------------------------------|
----------------------------------|----------------------------------|
----------------------------------|----------------------------------|
--4-4-4-4-4-4-4-------4-4-4-4-2-2-|--0-0-0-0-0-0-0-------0-0-0-0-0-0-|
--4-4-4-4-4-4-4-x-x-x-4-4-4-4-2-2-|--0-0-0-0-0-0-0-x-x-x-0-0-0-0-0-0-|

----------------------------------|----------------------------------|
----------------------------------|----------------------------------|
----------------------------------|----------------------------------|
----------------------------------|----------------------------------|
--0-0-0-0-0-0-0-------0-0-0-0-0-0-|--4-4-4-4-4-4-4-------4-4-4-4-4-4-|
--0-0-0-0-0-0-0-x-x-x-0-0-0-0-0-0-|--4-4-4-4-4-4-4-x-x-x-4-4-4-4-4-4-|

----------------------------------|------------------------------------|
----------------------------------|------------------------------------|
----------------------------------|------------------------------------|
----------------------------------|------------------------------------|
--4-4-4-4-4-4-4-------4-4-4-4-2-2-|------------------------------------|
--4-4-4-4-4-4-4-x-x-x-4-4-4-4-2-2-|--0-0-6-0-7-0-0-9-0-0-7-0-6-0-<>6~--|

------------------------------------|----------------------------------|
------------------------------------|----------------------------------|
------------------------------------|----------------------------------|
------------------------------------|------4-----4---4-----4---4---4-4-|
----------------------------2-2-0-0-|--x-x-4-x-x-4-x-4-x-x-4-x-4-x-4-4-|
--0-0-6-0-7-0-0-<>9~--0-7-0-2-2-0-0-|--x-x-4-x-x-4-x-4-x-x-4-x-4-x-4-4-|

----------------------------------|----------------5-----5---5---5-5-|
------5-----5---5-----5---5---5-5-|----------------------------------|
----------------------------------|----------------------------------|
------4-----4---4-----4---4---4-4-|------4-----4---4-----4---4---4-4-|
--x-x-4-x-x-4-x-4-x-x-4-x-4-x-4-4-|--x-x-4-x-x-4-x-4-x-x-4-x-4-x-4-4-|
--x-x-4-x-x-4-x-4-x-x-4-x-4-x-4-4-|--x-x-4-x-x-4-x-4-x-x-4-x-4-x-4-4-|

--5-5-5-5-5-5-5-5-5-5-5-5-5-5-5-5-||-----------------------------------|
----------------------------------||-----------------------------------|
----------------------------------||*----------------------------------|
--4-4-4-4-4-4-4-4-4-4-4-4-4-4-4-4-||*----------------------------------|
--4-4-4-4-4-4-4-4-4-4-4-4-4-4-4-4-||---4-4-4-4-4-4-4-4-4-4-4-4-4-4-4-4-|
--4-4-4-4-4-4-4-4-4-4-4-4-4-4-4-4-||---4-4-4-4-4-4-4-4-4-4-4-4-4-4-4-4-|

----------------------------------|---------------------------------|
----------------------------------|---------------------------------|
----------------------------------|-------9-9-9-9-9-9-9-9-9-9-9-9-9-|
----------------------------------|---------------------------------|
--7-7-7-7-7-7-7-7-7-7-7-7-7-7-7-7-|--0--0-7-7-7-7-7-7-7-7-7-7-7-7-7-|
--7-7-7-7-7-7-7-7-7-7-7-7-7-7-7-7-|--0--0---------------------------|

----------------------------------------||
----------------------------------------||
-------13-13-13-13-13-13---------------*||
---------------------------------------*||
--0--0-11-11-11-11-11-11-0-0-0-0-0-0-0--||
--0--0-------------------0-0-0-0-0-0-0--||

----------------------------------------------|
----------------------------------------------|
----------------------------------------------|
----------------------------------------------|
--4--4--4----4--4--4----4--4--4----4--4--4----|
--4--4--4----4--4--4----4--4--4----4--4--4----|
Pm---------------------------------------->

------------------------------------------|
------------------------------------------|
------------------------------------------|
------------------------------------------|
--4--4--4----4--4--4----4--4--4----4--7---|
--4--4--4----4--4--4----4--4--4----4--7---|
Pm---------------------------------->

-------------------------------------------|
-------------------------------------------|
-------------------------------------------|
--------------------------------------7----|
--0--0--0----0--0--0----0--0--0----0----0--|
--0--0--0----0--0--0----0--0--0----0----0--|
Pm---------------------------------->   .

----------------------------------------------|
----------------------------------------------|
----------------------------------------------|
--7--7--7----7--7--7----7--7--7----7--7--7----|
--0--0--0----0--0--0----0--0--0----0--0--0----|
--0--0--0----0--0--0----0--0--0----0--0--0----|
Pm---------------------------------------->

----------------------------------------------|
----------------------------------------------|
----------------------------------------------|
--7--7--7----7--7--7----7--7--7----7--7--7----|
--0--0--0----0--0--0----0--0--0----0--0--0----|
--0--0--0----0--0--0----0--0--0----0--0--0----|
Pm---------------------------------------->

----------------------------------|----------------------------------|
----------------------------------|----------------------------------|
--9-9-9---9-9-9---9-9-9---9-9-9---|--9-9-9---9-9-9---9-9-9---9-9-9---|
--7-7-7---7-7-7---7-7-7---7-7-7---|--7-7-7---7-7-7---7-7-7---7-7-7---|
--9-9-9---9-9-9---9-9-9---9-9-9---|--9-9-9---9-9-9---9-9-9---9-9-9---|
----------------------------------|----------------------------------|

------------------------------------|------------------------------------|
------------------------------------|------------------------------------|
------------------------------------|------------------------------------|
------------------------------------|------------------------------------|
------------------------------------|----------------------------2-2-0-0-|
--0-0-6-0-7-0-0-9-0-0-7-0-6-0-<>6~--|--0-0-6-0-7-0-0-<>9~--0-7-0-2-2-0-0-|

-------------------||-----------------------------------|
-------------------||-----------------------------------|
-------------------||*----------------------------------|
--4----------------||*----------------------------------|
--4----------------||---4-4-4-4-4-4-4-4-4-4-4-4-4-4-4-4-|
--4----------------||---4-4-4-4-4-4-4-4-4-4-4-4-4-4-4-4-|

----------------------------------|---------------------------------|
----------------------------------|---------------------------------|
----------------------------------|-------9-9-9-9-9-9-9-9-9-9-9-9-9-|
----------------------------------|---------------------------------|
--7-7-7-7-7-7-7-7-7-7-7-7-7-7-7-7-|--0--0-7-7-7-7-7-7-7-7-7-7-7-7-7-|
--7-7-7-7-7-7-7-7-7-7-7-7-7-7-7-7-|--0--0---------------------------|

----------------------------------------||-----------------------------------|
----------------------------------------||-----------5---------------5-------|
-------13-13-13-13-13-13---------------*||*----------------------------------|
---------------------------------------*||*----4---4---4---4---4---4---4---4-|
--0--0-11-11-11-11-11-11-0-0-0-0-0-0-0--||-----------------------------------|
--0--0-------------------0-0-0-0-0-0-0--||---4---4-------4---4---4-------4---|

----------------------------------|----------------------------------|
----------5---------------5-------|----------5---------------5-------|
----------------------------------|----------------------------------|
----2---2---2---2---2---2---2---2-|----0---0---0---0---0---0---0---0-|
----------------------------------|----------------------------------|
--2---2-------2---2---2-------2---|--0---0-------0---0---0-------0---|

-----------------------------------||-----------------------------------|
----------5---------------5--------||-----------------------------------|
----------------------------------*||*----------------------------------|
----2---2---2---2---2---2---2---2-*||*--4-4-4-4-4-4-4-4-4-4-4-4-4-4-4-4-|
-----------------------------------||---4-4-4-4-4-4-4-4-4-4-4-4-4-4-4-4-|
--2---2-------2---2---2-------2----||---4-4-4-4-4-4-4-4-4-4-4-4-4-4-4-4-|

----------------------------------|----------------------------------|
----------------------------------|----------------------------------|
----------------------------------|----------------------------------|
--2-2-2-2-2-2-2-2-2-2-2-2-2-2-2-2-|--0-0-0-0-0-0-0-0-0-0-0-0-0-0-0-0-|
--2-2-2-2-2-2-2-2-2-2-2-2-2-2-2-2-|--0-0-0-0-0-0-0-0-0-0-0-0-0-0-0-0-|
--2-2-2-2-2-2-2-2-2-2-2-2-2-2-2-2-|--0-0-0-0-0-0-0-0-0-0-0-0-0-0-0-0-|

-----------------------------------||-------------------||
-----------------------------------||-------------------||
----------------------------------*||-------------------||
--2-2-2-2-2-2-2-2-2-2-2-2-2-2-2-2-*||--4----------------||
--2-2-2-2-2-2-2-2-2-2-2-2-2-2-2-2--||--4----------------||
--2-2-2-2-2-2-2-2-2-2-2-2-2-2-2-2--||--4----------------||
Related for Quick To Move tab