Am Conspiracy - Right On Time tab

Right On Time - AM Conspiracy

Intro/Chorus
d----------------------|--------|
a----------------------|--------|
f----------------------|--------|
C----------------------|--------|
G-7-7-7-77-0-5-5-3-3-3-|x-x-x-x-|
D-5-5-5-55-0-3-3-1-1-1-|x-x-x-x-|
                    x2  
d---------------------|----------------------|
a---------------------|----------------------|
f---------------------|----------------------|
C---------------------|----------------------|
G-7-7-7/9-9-5-5-3-3-3-|-7-7-7-77-0-5-5-3-3-3-|
D-5-5-5/7-7-3-3-1-1-1-|-5-5-5-55-0-3-3-1-1-1-|

Verse
d--------------------------------|
a-5-12-10-8-12-8-5-12-10-5-3-8-5-|
f--------------------------------|
C--------------------------------|
G--------------------------------|
D--------------------------------|
Tap to rate this tab
 
# A B C D E F G H I J K L M N O P Q R S T U V W X Y Z