Song name
# A B C D E F G H I J K L M N O P Q R S T U V W X Y Z

Am Conspiracy - Right On Time tab

AM Conspiracy - Right on Time

Intro

e||-----------------------------------||
B||-----------------------------------||
G||-----------------------------------||
D||-5--5-5-5-5-5-5--3--3-3--1--1-1-1--||
A||-5--5-5-5-5-5-5--3--3-3--1--1-1-1--||
D||-5--5-5-5-5-5-5--3--3-3--1--1-1-1--|| This might not be the exact amount for 
the 5's, but if you listen to the song you can get it.

e||-----------------------------------------------||
B||-----------------------------------------------||
G||-----------------------------------------------||
D||-5--5-5-5-5-5-5--3--3-3--1--1-1-1--------------||
A||-5--5-5-5-5-5-5--3--3-3--1--1-1-1--x-x-x-x-----||
D||-5--5-5-5-5-5-5--3--3-3--1--1-1-1--x-x-x-x-----||

e||---------------------------------------||
B||---------------------------------------||
G||---------------------------------------||
D||-5--5-5-5-5-5-5/666--3--3-3--1--1-1-1--||
A||-5--5-5-5-5-5-5/666--3--3-3--1--1-1-1--||
D||-5--5-5-5-5-5-5/666--3--3-3--1--1-1-1--||

e||-----------------------------------||
B||-----------------------------------||
G||-----------------------------------||
D||-5--5-5-5-5-5-5--3--3-3--1--1-1-1--||
A||-5--5-5-5-5-5-5--3--3-3--1--1-1-1--||
D||-5--5-5-5-5-5-5--3--3-3--1--1-1-1--||

The intro riff is the same as the chorus.
Please comment and rate. If there is anything wrong with it, please let me know. Thanks.
fishnpants@yahoo.com
Tap to rate this tab
# A B C D E F G H I J K L M N O P Q R S T U V W X Y Z