Song name
# A B C D E F G H I J K L M N O P Q R S T U V W X Y Z

Am Conspiracy - Right On Time tab

Tuned to Drop C.

Intro/Chorus:
D ---------------------|
A ---------------------|
F ---------------------|
C -7-7-7-7-7-5-5-3-3-3-|
G -7-7-7-7-7-5-5-3-3-3-|
C -7-7-7-7-7-5-5-3-3-3-|

D -------------------------|
A -------------------xx-xx-|
F -------------------xx-xx-|
C -7-7-7-7-7-5-5-3-3-xx-xx-|
G -7-7-7-7-7-5-5-3-3-xx-xx-|
C -7-7-7-7-7-5-5-3-3-------|

D -----------------------|
A -----------------------|
F -----------------------|
C -7-7-7-7-7/8-5-5-3-3-3-|
G -7-7-7-7-7/8-5-5-3-3-3-|
C -7-7-7-7-7/8-5-5-3-3-3-|

D ---------------------|
A ---------------------|
F ---------------------|
C -7-7-7-7-7-5-5-3-3-3-|
G -7-7-7-7-7-5-5-3-3-3-|
C -7-7-7-7-7-5-5-3-3-3-|



Verse:(repeat as many times as necessary, use some sort of chorus pedal)
D --------------------------------------------|
A -----12--10------12---------12--10--------8-|
F -14----------12------12--9----------9--7----|
C --------------------------------------------|
G --------------------------------------------|
C --------------------------------------------|



Solo:
D --------------------------------|
A -----------------------13p12----|
F ------------------12h14-----14~-|
C -10h12--12---10h12--------------|
G --------------------------------|
C --------------------------------|

D -----------------------------------------------------|
A -----------------------------------13h15-15b17--15~~-|
F ------------------------------12h14------------------|
C -10h12--12b13-12-10------10h12-----------------------|
G --------------------12-------------------------------|
C -----------------------------------------------------|

D ------17-20------------------------|
A -20b22------20b22r20-17------------|
F ------------------------19b21r19~~-|
C -----------------------------------|
G -----------------------------------|
C -----------------------------------|


D ------17-20-----------------------------|
A -20b22------20b22r20-17-----------------|
F ------------------------19b21-21rb19-17-|
C ----------------------------------------|
G ----------------------------------------|
C ----------------------------------------|

D ----------------------------------|
A ------13h15-15b17r15p13----13-----|
F -12h14------------------14----14--|
C ----------------------------------|
G ----------------------------------|
C ----------------------------------|

D ---------------------------------|
A ------13h15-15--15b17-15-13------|
F -12h14----------------------14~~-|
C ---------------------------------|
G ---------------------------------|
C ---------------------------------|


(come in with the big pick slide, than repeat this until the song fades out)
D ---------------------|
A ---------------------|
F ---------------------|
C -7-7-7-7-7-5-5-3-3-3-|
G -7-7-7-7-7-5-5-3-3-3-|
C -7-7-7-7-7-5-5-3-3-3-|
Tap to rate this tab
 
# A B C D E F G H I J K L M N O P Q R S T U V W X Y Z