Song name
# A B C D E F G H I J K L M N O P Q R S T U V W X Y Z

Am Taxi - Fed Up tab

-----------------------------------------------------------------------------
			     FED UP - American Taxi
-----------------------------------------------------------------------------
Tabbed by: sdove33
Email: sdove33@gmail.com

Tuning: Standard

Fed Up
AMerican Taxi
The Good The Bad and The Fed Up

All of the timing and rhythm is not exactly charted so it will require some
thought and listening to the song.
The time indicators are also off the album 'The Good The Bad and The Fed Up'

It's a great song song so enjoy and please critique and show me any errors.

Intro pt.1 x2 (rhythm is easier when listened to)
e|---------------------------------------------------------------------|
B|---------------------------------------------------------------------|
G|-------------------------------------------------10---------10-------|
D|--10-10-10---9---9---9---10-10-10---9---9---9----10----7--9--x-------|
A|--10-10-10--10--10--10---10-10-10--10--10--10-----8----x--x--8-------|
E|---8--8--8---8---8---8----8--8--8---8---8---8----------5--7----------|

Intro pt.2 x1 - 0:11
e|-------------------------------------------------------------------|
B|-------------------------------------------------------------------|
G|-------------------------------------------------10----------------|
D|--10-10-10---9---9---9---10-10-10---9---9---9----10---7--5--3------|
A|--10-10-10--10--10--10---10-10-10--10--10--10-----8----------------|
E|---8--8--8---8---8---8----8--8--8---8---8---8----------------------|


verse 1 pt.1 - 0:17
e|------------------------------------------------|
B|------------------------------------------------|
G|--5--5--5--5--5--5--5--5--5--5--4--4-------2----|
D|-----------------------------------------3------|
A|---------------------------------------3--------|
E|------------------------------------------------|

verse 1 pt. 2 (palm mute) - 0:28
e|----------------------------------------------------------------------|
B|----------------------------------------------------------------------|
G|----------------------------------------------------------------------|
D|-101010101010101010101010101010--7777777777777777--5555555555555555---|
A|-101010101010101010101010101010--7777777777777777--5555555555555555---|
E|--8-8-8-8-8-8-8-8-8-8-8-8-8-8-8--5555555555555555--3333333333333333---|

e|---------------------|
B|---------------------|
G|---------------------|
D|-3333333333333333----|
A|-3333333333333333----|
E|-1111111111111111----|

verse 1 pt.3 (no palm mute) - 0:38
e|----------------------------------------------------------------------|
B|----------------------------------------------------------------------|
G|----------------------------------------------------------------------|
D|-101010101010101010101010101010--7777777777777777--5555555555555555---|
A|-101010101010101010101010101010--7777777777777777--5555555555555555---|
E|--8-8-8-8-8-8-8-8-8-8-8-8-8-8-8--5555555555555555--3333333333333333---|

e|---------------------|
B|---------------------|
G|---------------------|
D|-3333333333333333----|
A|-3333333333333333----|
E|-1111111111111111----|

Pre-chorus (softly) - 0:50
e|-------------------------------------------------------------|
B|-------------------------------------------------------------|
G|-------------------------------------------------------------|
D|-------------------------------------------------------------|
A|-------------------------------------------------------------|
E|---1--------5--------3----------------1--------5--------3----|

Chorus x2 - 1:01
e|-------------------------------------------------------------------------|
B|-------------------------------------------------------------------------|
G|---5555555555555555------------------------------------------------------|
D|---5555555555555555-3333333333333333-7777777777777777-3333333333333333---|
A|---3333333333333333-3333333333333333-7777777777777777-3333333333333333---|
E|--------------------1111111111111111-5555555555555555-1111111111111111---|

Bridge 1 (During the bass riff) - 1:23
e|------------------1----------------------|
B|------------------1----------------------|
G|------------------2----------10-10-------|
D|---3-----3---3----3-----7--9--x--x-------|
A|---3-----3---3----------x--x--8--8-------|
E|---1-----1---1----------5--7-------------|

Verse 2 pt. 1 (palm mute) - 1:28
e|----------------------------------------------------------------------|
B|----------------------------------------------------------------------|
G|----------------------------------------------------------------------|
D|-101010101010101010101010101010--7777777777777777--5555555555555555---|
A|-101010101010101010101010101010--7777777777777777--5555555555555555---|
E|--8-8-8-8-8-8-8-8-8-8-8-8-8-8-8--5555555555555555--3333333333333333---|

e|--------------------|
B|--------------------|
G|--------------------|
D|-333333--33333333---|
A|-333333--33333333---|
E|-111111--11111111---|

Verse 2 pt.2 (no palm mute) - 1:40
e|----------------------------------------------------------------------|
B|----------------------------------------------------------------------|
G|----------------------------------------------------------------------|
D|-101010101010101010101010101010--7777777777777777--5555555555555555---|
A|-101010101010101010101010101010--7777777777777777--5555555555555555---|
E|--8-8-8-8-8-8-8-8-8-8-8-8-8-8-8--5555555555555555--3333333333333333---|

e|---------------------|
B|---------------------|
G|---------------------|
D|-3333333333333333----|
A|-3333333333333333----|
E|-1111111111111111----|

Chorus x1 - 1:50
e|-------------------------------------------------------------------------|
B|-------------------------------------------------------------------------|
G|---5555555555555555------------------------------------------------------|
D|---5555555555555555-3333333333333333-7777777777777777-3333333333333333---|
A|---3333333333333333-3333333333333333-7777777777777777-3333333333333333---|
E|--------------------1111111111111111-5555555555555555-1111111111111111---|

                                        |{Palm mute}|
e|-------------------------------------------------------------------------|
B|-------------------------------------------------------------------------|
G|-5555555555555555--------------------------------------------------------|
D|-5555555555555555-3333333333333333-7777777777777777-33-xx-xx-33-xx-xx-33-|
A|-3333333333333333-3333333333333333-7777777777777777-33-xx-xx-33-xx-xx-33-|
E|------------------1111111111111111-5555555555555555-11-xx-xx-11-xx-xx-11-|

At this point there are two distinct guitar parts so they will be labeled Guitar 1 and 
2

Bridge 2 - 2:16

Guitar 1 - Chords
       F      Am       G (hold)
e|-----1-------5-------3------------|
B|-----1-------5-------3------------|
G|-----2-------5-------4------------|  x6
D|-----3-------7-------5------------|
A|-----3-------7-------5------------|
E|-----1-------5-------3------------|

Guitar 2 (Rest until Guitar 1 goes through the chords twice) - 2:26
e|------------------------------|
B|--------1--------1--------3---|
G|------0--------0-------4------|  x4
D|----3-------2-------5---------|
A|------------------------------|
E|------------------------------|

Here is a Pre-chorus without guitars - 2:48

Then they repeat the Pre-chorus with guitars - 2:59

Guitar 1 - Chords
       F      Am       G (hold)
e|-----1-------5-------3------------|
B|-----1-------5-------3------------|
G|-----2-------5-------4------------|
D|-----3-------7-------5------------|
A|-----3-------7-------5------------|
E|-----1-------5-------3------------|

Guitar 2 (distorted fill) - 3:03
e|----------------------------|
B|----------------------------|
G|-----4b5r4b5r4b5r4----------|
D|----------------------------|
A|----------------------------|
E|----------------------------|

Chorus x2 - 3:10
e|-------------------------------------------------------------------------|
B|-------------------------------------------------------------------------|
G|---5555555555555555------------------------------------------------------|
D|---5555555555555555-3333333333333333-7777777777777777-3333333333333333---|
A|---3333333333333333-3333333333333333-7777777777777777-3333333333333333---|
E|--------------------1111111111111111-5555555555555555-1111111111111111---|

Outro  - 3:32

e|--------------------------------------------------------|
B|--------------------------10-8-6--------------8---------|
G|--7--5-5--9-7--9-7-12-9----------9--7-7----7------------|
D|----------------------------------------10--------------|
A|--------------------------------------------------------|
E|--------------------------------------------------------|

3:40
e|--------------------------------------|
B|--------------------------------------|
G|-----7-5--7-5--7-5--7-5--7--5-7-9-----|
D|--------------------------------------|
A|--------------------------------------|
E|--------------------------------------|

3:43
e|-----------------------------------------------|
B|----------------------------8---8---8---10-10~-|
G|--7--5-5-5h7/9-7--9-7-12-9----9---9---9--------|
D|-----------------------------------------------|
A|-----------------------------------------------|
E|-----------------------------------------------|

3:51 (ending chords)
e|-----8------12------15-----|
B|-----6------10------13-----|
G|-----5------9-------12-----|
D|---------------------------|
A|---------------------------|
E|---------------------------|

Please rate and continue to listen to AM Taxi. Great stuff, very talented.
Please e-mail with any corrections or errors especially with the outro.
e-mail: sdove33@gmail.com


| /  slide up
| \  slide down
| h  hammer-on
| p  pull-off
| ~  vibrato
| +  harmonic
| x  mute note
| b  bend
| r  release bend
=============================================================================
Tap to rate this tab
 
# A B C D E F G H I J K L M N O P Q R S T U V W X Y Z