Song name
# A B C D E F G H I J K L M N O P Q R S T U V W X Y Z

Amanda Jenssen - Johnnys Song tab

Johnny's Song; Intro.
Play at a very slow pace.

[C]
|------------0------------------0-------|
|-------1-3----1-----------1-3----1-----|
|-----0----------0------0-----------0---|
|---------------------------------------|
|---3-----------------3-----------------|
|---------------------------------------|

[Dm]
|---------3-1----------3-1----------3-----------3-------|
|-------3-----3------3-----3------3---3-1-----3---3-1---|
|-----2------------2------------2-----------2-----------|
|---0------------0------------0-----------0-------------|
|-------------------------------------------------------|
|-------------------------------------------------------|
[C]
|----------------------------------|
|-------1-3-1------------1-3-1-----|
|-----0-------0--------0-------0---|
|----------------------------------|
|---3----------------3-------------|
|----------------------------------|

Start over.
Thomasa@bredband.net


"Amanda Jenssen has since released a number one charting single called Do You Love Me 
is about to launch her first full length album on May the 7:th 2008. A second single, 
Tree, will be released on April 16."

http://en.wikipedia.org/wiki/Amanda_Jenssen
Tap to rate this tab
# A B C D E F G H I J K L M N O P Q R S T U V W X Y Z