Song name
# A B C D E F G H I J K L M N O P Q R S T U V W X Y Z

Amanda Jenssen - Heartache tab

Heartache by Amanda Jenssen; Intro

|-----|-----2-------0----2---------2------0-------|
|-----|--------3------3----3---------3------3-----|
|-----|----------4---------------------4------4---| x2
|-----|-------------------------------------------|
|---2-|---2--------------------2------------------|
|-2---|-------------------------------------------|

---2---2-----2-----2---2-----2---------|
-----3---3-----------2---2-------------|
-------4---4-----------3---3-----------|
---------------------------------4--2--|
---------------------------------4--4--|
---------------------------------------|

thomasa@bredband.net
Tap to rate this tab
# A B C D E F G H I J K L M N O P Q R S T U V W X Y Z