Guitaretab - guitar tabs
Song name
# A B C D E F G H I J K L M N O P Q R S T U V W X Y Z

Amanda Jenssen - I Cant Sleep tab

Hello, alot of people are wanting this tab, so I tabbed it.
Please rate what I deserve.



 |---5--5--5--5--5--5---| x2
 |---6--6--6--6--6--6---|
 |---7--7--7--7--7--7---|
 |----------------------|
 |----------------------|
 |----------------------|
[ Tab from: http://www.guitaretab.com/a/amanda-jenssen/166549.html ]
 |---8--8--8--8--8--8---|
 |---8--8--8--8--8--8---|
 |---9--9--9--9--9--9---|
 |--10-10-10-10-10-10---|
 |----------------------|
 |----------------------|

 |---6--6--6--6--6--6---|
 |---6--6--6--6--6--6---|
 |---7--7--7--7--7--7---|
 |---8--8--8--8--8--8---|
 |----------------------|
 |----------------------|



Play these Bar Chords in the same pattern as above if you find that easier:
|---5--8--6---|
|---5-10--8---|
|---7-10--8---|
|---7--9--7---|
|---6--8--6---|
|---5--8--6---|




Thomasa@bredband.net
Related for I Cant Sleep tab