Song name
# A B C D E F G H I J K L M N O P Q R S T U V W X Y Z

Amanda Marshall - Sitting On Top Of The World tab

Tabbed by Derrick
derrickbell@sympatico.ca

This is the intro guitar riff which is played throughout the song.


itro: Sitting on top of the world

E-------------------2------5----------2----------------|
B-------------2h3-2-3------5-5-5--3-2-3----------------|
G-------------2-2-2---2s/4---6-4--2-2------------------|
D-----0----2-----------------------------------2-----2-|
A-0h2--------------------------------------------------|
E------3-0------------------------------0-2s/3---3-0---|


E---------2------5----------2------------------|
B---2h3-2-3------5-5-5--3-2-3------------------|
G---2-2-2---2s/4---6-4--2-2--------------------|
D---------------------------------2----------2-|
A----------------------------------------------|
E-----------------------------3-4---3s\2-0-3---|
Tap to rate this tab
# A B C D E F G H I J K L M N O P Q R S T U V W X Y Z