Guitaretab - guitar tabs
Song name
# A B C D E F G H I J K L M N O P Q R S T U V W X Y Z

Amanda Marshall - Let It Rain tab

----------------------------------------------------------------------------
			     Let it Rain - Amanda Marshall
----------------------------------------------------------------------------
Tabbed by: Kill_busted
Email: maxstunner100@hotmail.com

I will tab the lead licks in the preceding verse as well as the solo.

Tuning: Normale

 1:09                             1:15
e|-----------------------------|---------------------------------|
B|-----------------------------|---------------------------------| Its all
G|-----------------------------|---9-8---------------------------| Emaj/Dbm
D|------------------9h11--9h11-|--------9--9/11------------------| shape.
A|-------7-9--9/11-------------|-----------------11\9--7--9-9----|
E|----9------------------------|---------------------------------|
[ Tab from: http://www.guitaretab.com/a/amanda-marshall/21566.html ]
Solo 2:20
e|-------------------------------------------------------------------------|
B|----------------------------------(9)------------------------------------|
G|------------------9----------------9h11--9-------------------------9-----|
D|---------------9--9v---------9-11-----------11----------------9-11----11-|
A|------7--9/11-----------9-11---------------------------9-9-11------------|
E|--/9----------------------------------------------9-12-------------------|

e|--------------------------------------------------------|
B|--------------------------------------------------------|
G|-----------9-----------9------------9---13r11--9--11----|
D|---------9----11----------11-----11---------------------|
A|---9-11------------11-----------------------------------|
E|--------------------------------------------------------|

The timings a bit weird but you can figure it out with the song. great solo. you need a 
boost and low out-put pickups (or low instrument volume) with some soft high contour 
and a touch of reverb.

and questions email or pm me.
Related for Let It Rain tab
Let It Rain chords by Amanda Marshall