Song name
# A B C D E F G H I J K L M N O P Q R S T U V W X Y Z

Amanda Marshall - Let It Rain tab

There are several tabs around for this solo. This is what sounds best for me.
Have fun. Jochen

e|-----------------------------------------------------------------------|
B|----------------------------------(9)----------------------------------|
G|------------------9~---------------9h11--9-----------------------9-----|
D|---------------9--9~---------9h11-----------11~---------------9-----11~|
A|------7--9/11-----------9h11---------------------------9-9h11----------|
E|--/9----------------------------------------------9-12-----------------|

e|------------------------------------------------------|
B|------------------------------------------------------|
G|----------------------------------9--11b13r11--9--11~-|
D|-11p9------9----------9/11~----11---------------------|
A|------9h11---11--9------------------------------------|
E|-------------------12---------------------------------|
Tap to rate this tab
 
# A B C D E F G H I J K L M N O P Q R S T U V W X Y Z