Song name
# A B C D E F G H I J K L M N O P Q R S T U V W X Y Z

Amaral - Biarritz tab

Lead Guitar Tab

Harmonica Intro

e--12---10-12---14-12-10----10-7------|
B------------------------10-----------|
G-------------------------------------|
D-------------------------------------| x2
A-------------------------------------|
E-------------------------------------|

e--7---5-3--2-3-5-7-5--3-0----7--10--12---14-12-10----10-7------|
B---------------------------------------------------10----------|
G---------------------------------------------------------------|
D---------------------------------------------------------------|
A---------------------------------------------------------------|
E---------------------------------------------------------------|

First Chorus

   E  C             D           C             D
e--0--------------------------------------------------|
B--0--------3-1-0--------3-1-0----1-3-1-0-----3-------|
G--0------0-----------2---------4---------0-----2-----|
D--2----2-----------0-----------------------------0---|
A--2--3-----------------------------------------------|
E--0--------------------------------------------------|

Second Verse

e--0-----------------------0-2-3-0-----|
B--0-----------------------------------|
G--0-----------------------------------|
D--2---7-5-9-7--5-4-7-5----------------|
A--2-----------------------------------|
E--0-----------------------------------|

e--7---10-8-7-----5---7-5-3-2---3---8-7-5-3-2-0-3---5---7-5-3-2---|
B--8----------8---7-------------5-------------------7-------------|
G-----------------------------------------------------------------|
D-----------------------------------------------------------------|
A-----------------------------------------------------------------|
E-----------------------------------------------------------------|

Second Chorus

  E   C             D           C             D
e--0--------------------------------------------------|
B--0--------3-1-0--------3-1-0----1-3-1-0-------------|
G--0------0-----------2---------4---------0---4-2-----|
D--2----2-----------0---------------------------------|
A--2--3-----------------------------------------------|
E--0--------------------------------------------------|

  E   C             D            C            D
e--0---------------------------0-----------------------|
B--0--------3-1-0--------3-1-0-----1-3-1-0----3--------|
G--0------0-----------2----------4---------0----2------|
D--2----2-----------0-----------------------------0----|
A--2--3------------------------------------------------|
E--0---------------------------------------------------|

Bridge
                             (tremolo pick these)
                             \/ \/
e--12--10--7-8-7-5-7--5--12--15-14----|
B-------------------------------------|
G-------------------------------------|
D-------------------------------------|
A-------------------------------------|
E-------------------------------------|


Solo

e--7-5-0-7-5-0-7-5-0-5--8-8-7-5-0-----|
B-------------------------------------|
G-------------------------------------| x2
D-------------------------------------|
A-------------------------------------|
E-------------------------------------|

e--12--10----12-10----12--10----12-10-----|
B---------10-------10--------10-------10--|
G-----------------------------------------|
D-----------------------------------------|
A-----------------------------------------|
E-----------------------------------------|

e--7--7-7-5-5-5-5---------------5--5-5-------------------------|
B-----------------8-8-8-7-5-7-8--------8-8-8-8-7-7-7-5-5-7-8---|
G--------------------------------------------------------------|
D--------------------------------------------------------------|
A--------------------------------------------------------------|
E--------------------------------------------------------------|

e--7-7-10-8-7----7-7-10-10-8-7-------10-10-8-7-5---|
B-------------10---------------10-10---------------|
G--------------------------------------------------|
D--------------------------------------------------|
A--------------------------------------------------|
E--------------------------------------------------|


e--7-5--------------------------------|
B------8-7-5---5----------------------|
G------------7------------------------|
D-------------------------------------|
A-------------------------------------|
E-------------------------------------|

Final Chorus

   E  C             D	       C	     D
e--0--------------------------------------------------|
B--0--------3-1-0--------3-1-0----1-3-1-0-------------|
G--0------0-----------2---------4---------0---2-------|
D--2----2-----------0---------------------------------|
A--2--3-----------------------------------------------|
E--0--------------------------------------------------|

   E   C             D           C             D
e------------------------------------------------------|
B--0---------3-1-0--------3-1-0----1-3-1-0-------------|
G----0-----0-----------2---------4---------0---2-------|
D--------2-----------0---------------------------------|
A------3-----------------------------------------------|
E------------------------------------------------------|

   E   C             D            C            D
e-------------------------------0-----------------------|
B--0---------3-1-0--------3-1-0-----1-3-1-0----3--------|
G----0-----0-----------2----------4---------0----2------|
D--------2-----------0-----------------------------0----|
A------3------------------------------------------------|
E-------------------------------------------------------|

   C
e--8--7--5--7------------------------|
B------------------------------------|
G------------------------------------|
D------------------------------------|
A------------------------------------|
E------------------------------------|
   D
e--10--8--7--------------------------|
B------------8-----------------------|
G------------------------------------|
D------------------------------------|
A------------------------------------|
E------------------------------------|
   C                 E
e--8--7--5--7--3--2--0----------------|
B--------------------0----------------|
G--------------------0----------------|
D--------------------2----------------|
A--------------------2----------------|
E--------------------0----------------|

Chords (Which are not mine, I got them off of here 
credit goes to original author not me.)

INTRO: Em C D Em (x4)

    Em
Has puesto lo tuyo sin hablar
                D              Dsus4  D
Y siento que tu risa es llanto
           C
Cuando buscas en mí
                   D   Dsus4  D
Donde nunca hubo nada.

  Em
Colores y formas que se van
               D            Dsus4  D
Y un tímido lamento hispano
               C
Tiemblo al sentir
                D          Dsus4  D
Como quemas tus alas en mí.

Em                     C
Biarritz, dormida soledad
           G              D
Lleva mis pasos hacia el mar
    Em           C
Que no despierte ya
    G             D
Que no pueda escapar.

    Em
Más lejos que nunca voy a estar
                  D    Dsus4  D
Como un pálido reflejo
          C
Es tan difícil ya
                  D    Dsus4  D
Que cierre mis heridas.

       Em
Veo colores y formas que se van
               D            Dsus4  D
Y un tímido lamento hispano
               C
Tiemblo al sentir
                D          Dsus4  D
Como quemas tus alas en mí.

   Em                       C
El tiempo aparece ante los dos
          G            D
Mi dulce muerte, mi dolor
  Em              C
Como un testigo cruel
          G           D
Que se impone sin hablar.

Em                     C
Biarritz, dormida soledad
           G              D
Lleva mis pasos hacia el mar
    Em           C
Que no despierte ya
    G             D
Que no pueda escapar.

              Em             D
Siento que la luz se apaga y sé
       G       C
Que la vida se va
Em          D
Hasta el final
                   Em
Aprieta hasta el final.

Em C Em C Dsus4 D Dsus4 D Em  D  Em  D


Em                     C
Biarritz, dormida soledad
           G              D
Lleva mis pasos hacia el mar
    Em           C
Que no despierte ya
    G             D
Que no pueda escapar.

   Em                       C
El tiempo aparece ante los dos
          G            D
Mi dulce muerte, mi dolor
  Em              C
Como un testigo cruel
          G           D
Que se impone sin hablar.

Em                     C
Biarritz, dormida soledad
           G              D
Lleva mis pasos hacia el mar.

Em C G D Em C G D Em C G D Em

The chords indicated on top of tabs is to guide the player on when to play the riff 
to the chords.
I don't speak Spanish so any questions to me should be in English.
Please join the campaign to bring the glorious band Amaral to New York City! 
http://amaralnyc.webs.com/
Tap to rate this tab
# A B C D E F G H I J K L M N O P Q R S T U V W X Y Z