Song name
# A B C D E F G H I J K L M N O P Q R S T U V W X Y Z

Amaran - Atropine tab

-------------------------------------------------------------------------------
			     Atropine - Amaran
-------------------------------------------------------------------------------

 Tabbed by: Lethal
 Email: skullcalavera@hotmail.com
 Album: Pristine in Bondage
 
 This song is originally play in other tuning, so this is an adpatation in 
 standart(EADGBe) tuning, its sound good so if you have any correction, send me
 a mail, soo you are free of correct or add more tab. well enjoy it :P
  
 Esta cancion es tocada originalmente en otra afinacion, esta es una adaptacion
 en afinacion estandar (EADGBe), suena bien de todos modos, si tienen alguna 
 correccion envienme un mail, son libre de editar o agregar mas parte de la tablatura
 
 Tuning: Standart

 I Guitar - Primera guitarra

  Intro - Introduccion

e|-------------------------------------|
B|-------------------------------------| x 4
G|-10-10-10-10-10-10-11-11-11----------|
D|-10-10-10-11-11-11-11-11-11-10-10-10-|
A|--8--8--8--8--8--8--9--9--9-10-10-10-|
E|-----------------------------8--8--8-|

  Verse I - Primer verso

e|-----------------------------------------------------------------|
B|-----------------------------------------------------------------| x 2
G|-12h13-12------------------------13h15-13--------15h17-15--------|
D|---------10------------------------------11--------------14------|
A|-----------------------------------------------------------------|
E|-----------------------------------------------------------------|

e|---------------------------------------------------------------|  ---
B|---------------------------------------------------------------|   |
G|---------12h13h15p13p12--12h13--------------15h17h15h13--13h15-|   |
D|-12h13h14--------------15--------13h15h16h18-----------16------|   |
A|---------------------------------------------------------------|   |
E|---------------------------------------------------------------|   |
                                                                    x 2
e|---------------------------------------------------------------|   |
B|-18p17---------------------------------------------------------|   |
G|------18p17p15------------15h17h18p17p15-----------------------|   |
D|--------------17--15h17h18--------------18p17p15---------------|   |
A|---------------------------------------------------------------|   |
E|---------------------------------------------------------------|  ---


e|--------------------------------------------------------------------------|  ---
B|------------------------------------13p11--13p11--------------------------|   |    
G|---------12h13h15p13p12--12h13-13p12-----13-----13-12-10-13-12-10p8-12-10-|   |   
D|-12h13h14--------------15-------------------------------------------------|   |   
A|--------------------------------------------------------------------------|   |   
E|--------------------------------------------------------------------------|   |
                                                                               x 2
e|--------------------------------------------------------------------------|   |
B|---------------^--^-^-----------------------------------------------------|   |
G|--------------11-10-9--9-10-12-13-12-10-9---------------------------------|   |
D|-11-10-8h10h11------------------------------------------------------------|   |
A|--------------------------------------------------------------------------|   |
E|--------------------------------------------------------------------------|  ---

  Chorus - Coro

e|-------------------------------------|
B|-------------------------------------| x 2
G|-10-10-10-10-10-10-11-11-11----------|
D|-10-10-10-11-11-11-11-11-11-10-10-10-|
A|--8--8--8--8--8--8--9--9--9-10-10-10-|
E|-----------------------------8--8--8-|

e|-----------------------------------------------------------------|
B|-------------------------------------------------7---------------| x 2
G|--------------------------------------------------8-7------------|
D|--------------------------------------7-8-10-8-7-----10-8-7-8-10-|
A|-6p5-5-6p5-5-6p5-5-6p5-5-6p5-6p5-5h7h8---------------------------|
E|-6p5-5-6p5-5-6p5-5-6p5-5-6p5-6p5---------------------------------|

e|-----------------------------------------------------------------|
B|-----------------------------------------------------------------| x 2
G|-----------------------------------------------------------------|
D|-----------------------------------------------------------------|
A|-6p5-5-6p5-5-6p5-5-6p5-5-6p5-6p5-6p5-5-6p5-5-6p5-5-6p5-5-6p5-6p5-|
E|-6p5-5-6p5-5-6p5-5-6p5-5-6p5-6p5-6p5-5-6p5-5-6p5-5-6p5-5-6p5-6p5-|

  Interlude - Interludio

e|---------------------------------------------|
B|---------------------------------------------| x 2
G|---------------------------------------------|
D|-5-5-5--555-5-5-5--555--5-5-5--555-5-5-5-555-|
A|-3-3-3--333-3-3-3--333--3-3-3--333-3-3-3-333-|
E|-3-3-3--333-3-3-3--333--3-3-3--333-3-3-3-333-|

  Chorus - Coro

e|-------------------------------------|
B|-------------------------------------| x 4
G|-10-10-10-10-10-10-11-11-11----------|
D|-10-10-10-11-11-11-11-11-11-10-10-10-|
A|--8--8--8--8--8--8--9--9--9-10-10-10-|
E|-----------------------------8--8--8-|

  Verse I - segundo verso

e|-----------------------------------------------------------------|
B|-----------------------------------------------------------------| x 2
G|-12h13-12------------------------13h15-13--------15h17-15--------|
D|---------10------------------------------11--------------14------|
A|-----------------------------------------------------------------|
E|-----------------------------------------------------------------|

e|--------------------------------------------------------------------------|  ---
B|------------------------------------13p11--13p11--------------------------|   |    
G|---------12h13h15p13p12--12h13-13p12-----13-----13-12-10-13-12-10p8-12-10-|   |   
D|-12h13h14--------------15-------------------------------------------------|   |   
A|--------------------------------------------------------------------------|   |   
E|--------------------------------------------------------------------------|   |
                                                                               x 2
e|--------------------------------------------------------------------------|   |
B|---------------^--^-^-----------------------------------------------------|   |
G|--------------11-10-9--9-10-12-13-12-10-9---------------------------------|   |
D|-11-10-8h10h11------------------------------------------------------------|   |
A|--------------------------------------------------------------------------|   |
E|--------------------------------------------------------------------------|  ---

e|-----------------------------------------------------------------|
B|-----------------------------------------------------------------| x 2
G|-----------------------------------------------------------------|
D|-----------------------------------------------------------------|
A|-6p5-5-6p5-5-6p5-5-6p5-5-6p5-6p5-6p5-5-6p5-5-6p5-5-6p5-5-6p5-6p5-|
E|-6p5-5-6p5-5-6p5-5-6p5-5-6p5-6p5-6p5-5-6p5-5-6p5-5-6p5-5-6p5-6p5-|

  Interlude - Interludio

e|---------------------------------------------|
B|---------------------------------------------| x 2
G|---------------------------------------------|
D|-5-5-5--555-5-5-5--555--5-5-5--555-5-5-5-555-|
A|-3-3-3--333-3-3-3--333--3-3-3--333-3-3-3-333-|
E|-3-3-3--333-3-3-3--333--3-3-3--333-3-3-3-333-|

  Chorus - Coro

e|-------------------------------------|
B|-------------------------------------| x 4
G|-10-10-10-10-10-10-11-11-11----------|
D|-10-10-10-11-11-11-11-11-11-10-10-10-|
A|--8--8--8--8--8--8--9--9--9-10-10-10-|
E|-----------------------------8--8--8-|

  Ending - Final

e|-------------------------------------|
B|-------------------------------------| 
G|-------------------------------------|
D|-------------------------------------|
A|-6p5-5-6p5-5-6p5-5-6p5-5-6p5-6p5-6p5-|
E|-6p5-5-6p5-5-6p5-5-6p5-5-6p5-6p5-6p5-|


| /  slide up
| \  slide down
| h  hammer-on
| p  pull-off
| ~  vibrato
| +  harmonic
| x  Mute note
| ^  Pull up
===============================================================================
Tap to rate this tab
 
# A B C D E F G H I J K L M N O P Q R S T U V W X Y Z