Amatorski - The King chords

Highlighted       Show chord diagrams
Amatorski - The King
------------------
Capo 4 

trough the whole song : 

|------------------------------------------------------|
|--------0----------0----------0---------0-------------|
|------0---0------0---0------0---0-----0---0-----------|
|----0----------0----------2---------2-----------------|
|------------------------------------------------------|
|------------------------------------------------------|

|------------------------------------------------------|
|--------0----------0----------0---------0-------------|
|------0---0------0---0------0---0-----0---0-----------|
|---------------0--------------------------------------|
|----3-------------------------------------------------|
|--------------------------3---------3-----------------|

chords :  

Em/D (xx000x)
Em :  (022000)
C   :  (035010)
G   :  (320003)


Em/D                 Em 
The king died after
C        Em/D         G 
you promised loyalty 

Don't show him the painting 
he'll fall down, you'll see.. 

The raven betrayed the dangers, 
but you put off his destiny.. 

You were misunderstood 
but the king praised your loyalty. 

The king sacrificed the twins, 
for loyalty. 

That's how.. 
how you came back 
and the king praised your loyalty. 

The raven betrayed the dangers, 
but you put off his destiny.. 

You were misunderstood 
but the king praised your loyalty.
Tap to rate this tab
 
# A B C D E F G H I J K L M N O P Q R S T U V W X Y Z