Song name
# A B C D E F G H I J K L M N O P Q R S T U V W X Y Z

Amazing Transparent Man - Cheerleader tab

===========================================================
	Artist: Amazing Transparent Man
	  Song: Puff Daddy
	 Album: Demo tape
===========================================================

Tabbed: TheMutts @ Ultimate-Guitar.com
Email: st_jimmy_themutts@yahoo.com

Tuning: Standard

-----------------
Verse
-----------------

|------------------|
|------------------|
|--55--77--33--99--|
|--55--77--33--99--|
|--33--55--11--77--|
|------------------|

|------------------|
|------------------|
|------------------|
|--777--99--5--99--|repeat as needed
|--777--99--5--99--|
|--555--77--3--77--|


-----------------
Chorus
-----------------

Just use the power chords in the first riff of the verse/intro
and change the strumming.

It's the part that says "I'm better than you."


The end.
Tap to rate this tab
# A B C D E F G H I J K L M N O P Q R S T U V W X Y Z