Song name
# A B C D E F G H I J K L M N O P Q R S T U V W X Y Z

Ambassadors - Love Song tab

humanap ako ng tab na to..
pero wala!
kaya ako nlang gumawa!!
tatlong araw ko tong pnag hirapan..
kaya sana pahalaganhan nio!!
rate naman kau o kahit pasalamat man lang at add mio ako sa fb
emaiL:john_lano@yahoo.com!


ung sa tumingin lang tang ina nio!
d man lang kau nag rate o nagpasalamat

medyo mali ang iba just listen to the music....


Intro -
e|----------------10-----------------------------------|
B|---121212121212------13--12--101010101010---13-12----|
G|---121212121212----------12--111111111111------------|
D|-----------------------------------------------------|
A|-----------------------------------------------------|
E|-----------------------------------------------------|

e|------10---------------10----------------------------------|
B|8-8-8-----8-8-8--8-8-9-----8-8-8---8-8-8-8---101010101010--|
G|9-9-9-----9-9-9--9-9-9-----9-9-9---9-9-9-9---111111111111--|
D|-----------------------------------------------------------|
A|-----------------------------------------------------------|
E|-----------------------------------------------------------|


e|----------------10-----------------------------------|
B|---121212121212------13--12--101010101010---13-12----|
G|---121212121212----------12--111111111111------------|
D|-----------------------------------------------------|
A|-----------------------------------------------------|
E|-----------------------------------------------------|

e|------10---------------10----------------------------------|
B|8-8-8-----8-8-8--8-8-9-----8-8-8---------------------------|
G|9-9-9-----9-9-9--9-9-9-----9-9-9---------------------------|
D|------------------------------------99999---77777----------|
A|-----------------------------------------------------------|
E|-----------------------------------------------------------|


Verse 1
while im singing you my love song..... 
e|-------------------------------------------------------------------|
B|-------------------------------------------------------------------|
G|-----------------------------------99999999-55555555-77777777------|x2
D|-121212121212121212-12121212121212-99999999-55555555-77777777------|
A|-101010101010101010-99999999999999-77777777-33333333-55555555------|
E|-------------------------------------------------------------------|  









im not gonna make u cry.....
e|-----------------------------------------|
B|-----------------------------------------|
G|-555555555-777777777---------------------|
D|-555555555-777777777---------------------|
A|-333333333-555555555---------------------|
E|-----------------------------------------|




even if the world will turns its back on you..
e|---------------------------------------------|
B|---------------------------------------------|
G|-99999999-777777777-555555555-777777777------|
D|-99999999-777777777-555555555-777777777------|
A|-77777777-555555555-333333333-555555555------|
E|---------------------------------------------|


when your down...
e|-----------------------------------------------|
B|-----------------------------------------------|
G|-99999999-555555555-777777777------------------|
D|-99999999-555555555-777777777------------------|
A|-77777777-333333333-555555555------------------|
E|-----------------------------------------------|



tAKE my hand...
e|---------------------------------------------------------------|
B|---------------------------------------------------------------|
G|----------55555555-77777777------------------------------------|
D|-22222222-55555555-77777777------------------------------------|
A|-22222222-33333333-55555555------------------------------------|x2
E|-00000000------------------------------------------------------|


instrumental
e|--------------------10---------------------------------------------------------------|
B|----------------------13-12-12-1010101010-8-10-12------------------------------------|
G|-121212121212121212--------------------------------99999999-55555555-77777777--------|
D|-121212121212121212--------------------------------99999999-55555555-77777777--------|
A|-101010101010101010--------------------------------77777777-33333333-55555555--------|
E|-------------------------------------------------------------------------------------|  




im not gonna make u cry.....
e|--------------------------------------------------------|
B|--------------------------------------------------------|
G|-55555555-77777777--------------------------------------|
D|-55555555-77777777--------------------------------------|
A|-33333333-55555555--------------------------------------|
E|--------------------------------------------------------|




even if the world will turns its back on you..
e|---------------------------------------------|
B|---------------------------------------------|
G|-99999999-777777777-555555555-777777777------|
D|-99999999-777777777-555555555-777777777------|
A|-77777777-555555555-333333333-555555555------|
E|---------------------------------------------|


when your down...
e|----------------------------------------------|
B|----------------------------------------------|
G|-99999999-55555555-777777777------------------|
D|-99999999-55555555-777777777------------------|
A|-77777777-33333333-555555555------------------|
E|----------------------------------------------|



instrumentaL:

e|---------------------------------------------------------------|
B|---------------------------------------------------------------|
G|--------------------55555555-77777777--------------------------|
D|-22222222-4s5s4-4s5-55555555-77777777--------------------------|
A|-22222222-----------33333333-55555555--------------------------|
E|-00000000------------------------------------------------------|

e|---------------------------------------------------------------|
B|---------------------------------------------------------------|
G|-4h5p4----------4h5p4---------------------4h5p4----------------|
D|-------7---5----------7---5-7-5-7-5-7-5-7-------5-5s9-7--------|
A|-------------7-----------------------------------------9-10----|
E|---------------------------------------------------------------|
                                                   got take to you..
                                                     


you have a place that the angels can't disturb.....
e|---------------------------------------------------------|
B|---------------------------------------------------------|
G|---------------------------99999999-55555555-77777777----|
D|-121212121212-121212121212-99999999-55555555-77777777----|
A|-101010101010-999999999999-77777777-33333333-55555555----|
E|---------------------------------------------------------|  

oh lalalalal..lalal love,....
e|---------------------------------------------------------|
B|---------------------------------------------------------|
G|---------------------------99999999-55555555-77777777----|
D|-121212121212-141414141414-99999999-55555555-77777777----|
A|-101010101010-121212121212-77777777-33333333-55555555----|
E|---------------------------------------------------------|  




for every where..
e|------------------------------------------------------------------|
B|------------------------------------------------------------------|
G|-------------3~-------------------5555555-7777777-----------------|
D|-2~----------3~----------2~-------5555555-7777777-----------------|
A|-2~----------5~----------2~-------3333333-5555555-----------------|
E|-0~----------------------0~---------------------------------------|



intrumental:


e|---------------------------------------------------------------------|
B|---------------------------------------------------------------------|
G|-4-5-5s7-7-7-7s9-7-4---4-4---7--7-7-7s9-7-5-4------------------------|
D|---------------------------5-----------------------------------------|
A|---------------------------------------------------------------------|
E|---------------------------------------------------------------------|


e|---------------------------------------------------------------------|
B|---------------------------------------------------------------------|
G|---4------4----------4------4---5-4-44-5-5s7-777-7s12-11-9-7---444-7-|
D|-7---5--7-----5---7----5--7------------------------------------------|
A|---------------------------------------------------------------------|
E|---------------------------------------------------------------------|

                                                             ohh..lalalala



so listen to..
e|-------------------------------------------|
B|-------------------------------------------|
G|-9999999-55555555-7777777------------------|
D|-9999999-55555555-7777777------------------|
A|-7777777-33333333-5555555------------------|
E|-------------------------------------------|  


e|------------------------------------------------------------------|
B|------------------------------------------------------------------|
G|-------------3~-------------------5555555-7777777-----------------|
D|-2~----------3~----------2~-------5555555-7777777-----------------|
A|-2~----------5~----------2~-------3333333-5555555-----------------|
E|-0~----------------------0~---------------------------------------|




I will singing you my love song..... 
e|-------------------------------------------------------------------|
B|-------------------------------------------------------------------|
G|-----------------------------------99999999-55555555-7777-7~-------|
D|-121212121212121212-12121212121212-99999999-55555555-7777-5~-------|
A|-101010101010101010-99999999999999-77777777-33333333-5555----------|
E|-------------------------------------------------------------------|  

I will sing to you my love song 
Will write to you a poem 
I will give you my everything 
Just donít leave me all alone 
I will take you to heaven 
And offer you the stars 
I will give you my all 
I love you with all my heart 

Im not gonna make you cry 
I'll alway's be by your side 
Even if the world will turn it's back on you 
When your down and you've got 
Nobody to hold on to 
Take my hand and i will take you there 
Hold on tight coz we will go somewhere 

Im not gonna make you cry 
I'll alway's be by your side 
Even if the world will turn it's back on you 
When your down and you've got 
Nobody to hold on to 

Im gonna take you to a place 
Where even angel's can't disturb 
So listen to me and feel the love 
I have for you so here it goes 

Oh La La La Love.. 
La La La La La La La La La La La La La La La La La Love 
Oh La La La La Love 

So listen to me and feel the love 
I have for you and here it goes 

You're every where i go 
You're everything i see 
The two of us together 
Make a perfect harmony 

Oh La La La La Love 

So listen to me and feel the love 
I have for you and here it goes 
You're everywhere i go 
You're everything i see 
The two of us together 
Make a perfect harmony 

I will sing to you my love song..will write to a poem 
(Make A Perfect Harmony) 
I will give you my all..I love you with all my heart 
(Make A Perfect Harmony) 
And I Make A Perfect Harmony




samalat sa tumingin lang at d nag rate!!
coments and suggestion just txt me
09204360649-kai
tnx
Tap to rate this tab
# A B C D E F G H I J K L M N O P Q R S T U V W X Y Z