Song name
# A B C D E F G H I J K L M N O P Q R S T U V W X Y Z

Ambassadors - It Might Be You tab

1st
e|------------------|
B|------------------|
G|-----0---2-2h4--0-|
D|---0---0----------|
A|------------------|
E|-3----------------|

2nd
e|------------------|
B|------------------|
G|-----0---2-2h4--0-|
D|---0---0----------|
A|-2----------------|
E|------------------|

3rd
e|------------------|
B|------------------|
G|-----0---2-2h4--0-|
D|---0---0----------|
A|-3----------------|
E|------------------|

4th
e|---------------------|
B|---------------------|
G|-----0---2h4--0------|
D|---0---0--------0h3--|
A|-5-------------------|
E|---------------------|
** repeat **
Tap to rate this tab
# A B C D E F G H I J K L M N O P Q R S T U V W X Y Z